  0
SECTION
  2
HEADER
  9
$ACADVER
  1
AC1018
  9
$ACADMAINTVER
 70
     0
  9
$DWGCODEPAGE
  3
ANSI_1252
  9
$INSBASE
 10
0.0
 20
0.0
 30
0.0
  9
$EXTMIN
 10
-0.5
 20
-0.5
 30
-0.5
  9
$EXTMAX
 10
5.0
 20
5.0
 30
5.0
  9
$LIMMIN
 10
-0.5
 20
-0.5
  9
$LIMMAX
 10
5.0
 20
5.0
  9
$ORTHOMODE
 70
     0
  9
$REGENMODE
 70
     1
  9
$FILLMODE
 70
     1
  9
$QTEXTMODE
 70
     0
  9
$MIRRTEXT
 70
     1
  9
$LTSCALE
 40
1.0
  9
$ATTMODE
 70
     1
  9
$TEXTSIZE
 40
0.2
  9
$TRACEWID
 40
0.05
  9
$TEXTSTYLE
  7
Standard
  9
$CLAYER
  8
0
  9
$CELTYPE
  6
ByLayer
  9
$CECOLOR
 62
   256
  9
$CELTSCALE
 40
1.0
  9
$DISPSILH
 70
     0
  9
$DIMSCALE
 40
1.0
  9
$DIMASZ
 40
0.18
  9
$DIMEXO
 40
0.0625
  9
$DIMDLI
 40
0.38
  9
$DIMRND
 40
0.0
  9
$DIMDLE
 40
0.0
  9
$DIMEXE
 40
0.18
  9
$DIMTP
 40
0.0
  9
$DIMTM
 40
0.0
  9
$DIMTXT
 40
0.18
  9
$DIMCEN
 40
0.09
  9
$DIMTSZ
 40
0.0
  9
$DIMTOL
 70
     0
  9
$DIMLIM
 70
     0
  9
$DIMTIH
 70
     1
  9
$DIMTOH
 70
     1
  9
$DIMSE1
 70
     0
  9
$DIMSE2
 70
     0
  9
$DIMTAD
 70
     0
  9
$DIMZIN
 70
     0
  9
$DIMBLK
  1

  9
$DIMASO
 70
     1
  9
$DIMSHO
 70
     1
  9
$DIMPOST
  1

  9
$DIMAPOST
  1

  9
$DIMALT
 70
     0
  9
$DIMALTD
 70
     2
  9
$DIMALTF
 40
25.4
  9
$DIMLFAC
 40
1.0
  9
$DIMTOFL
 70
     0
  9
$DIMTVP
 40
0.0
  9
$DIMTIX
 70
     0
  9
$DIMSOXD
 70
     0
  9
$DIMSAH
 70
     0
  9
$DIMBLK1
  1

  9
$DIMBLK2
  1

  9
$DIMSTYLE
  2
Standard
  9
$DIMCLRD
 70
     0
  9
$DIMCLRE
 70
     0
  9
$DIMCLRT
 70
     0
  9
$DIMTFAC
 40
1.0
  9
$DIMGAP
 40
0.09
  9
$DIMJUST
 70
     0
  9
$DIMSD1
 70
     0
  9
$DIMSD2
 70
     0
  9
$DIMTOLJ
 70
     1
  9
$DIMTZIN
 70
     0
  9
$DIMALTZ
 70
     0
  9
$DIMALTTZ
 70
     0
  9
$DIMUPT
 70
     0
  9
$DIMDEC
 70
     4
  9
$DIMTDEC
 70
     4
  9
$DIMALTU
 70
     2
  9
$DIMALTTD
 70
     2
  9
$DIMTXSTY
  7
Standard
  9
$DIMAUNIT
 70
     0
  9
$DIMADEC
 70
     0
  9
$DIMALTRND
 40
0.0
  9
$DIMAZIN
 70
     0
  9
$DIMDSEP
 70
    46
  9
$DIMATFIT
 70
     3
  9
$DIMFRAC
 70
     0
  9
$DIMLDRBLK
  1

  9
$DIMLUNIT
 70
     2
  9
$DIMLWD
 70
    -2
  9
$DIMLWE
 70
    -2
  9
$DIMTMOVE
 70
     0
  9
$LUNITS
 70
     2
  9
$LUPREC
 70
     4
  9
$SKETCHINC
 40
0.1
  9
$FILLETRAD
 40
0.5
  9
$AUNITS
 70
     0
  9
$AUPREC
 70
     0
  9
$MENU
  1
.
  9
$ELEVATION
 40
0.0
  9
$PELEVATION
 40
0.0
  9
$THICKNESS
 40
0.0
  9
$LIMCHECK
 70
     0
  9
$CHAMFERA
 40
0.0
  9
$CHAMFERB
 40
0.0
  9
$CHAMFERC
 40
0.0
  9
$CHAMFERD
 40
0.0
  9
$SKPOLY
 70
     0
  9
$TDCREATE
 40
2460054.612783935
  9
$TDUCREATE
 40
2460054.529450602
  9
$TDUPDATE
 40
2460054.612784479
  9
$TDUUPDATE
 40
2460054.529451146
  9
$TDINDWG
 40
0.0000000116
  9
$TDUSRTIMER
 40
0.0000000116
  9
$USRTIMER
 70
     1
  9
$ANGBASE
 50
0.0
  9
$ANGDIR
 70
     0
  9
$PDMODE
 70
     0
  9
$PDSIZE
 40
0.0
  9
$PLINEWID
 40
0.0
  9
$SPLFRAME
 70
     0
  9
$SPLINETYPE
 70
     6
  9
$SPLINESEGS
 70
     8
  9
$HANDSEED
  5
22A
  9
$SURFTAB1
 70
     6
  9
$SURFTAB2
 70
     6
  9
$SURFTYPE
 70
     6
  9
$SURFU
 70
     6
  9
$SURFV
 70
     6
  9
$UCSBASE
  2

  9
$UCSNAME
  2

  9
$UCSORG
 10
0.0
 20
0.0
 30
0.0
  9
$UCSXDIR
 10
1.0
 20
0.0
 30
0.0
  9
$UCSYDIR
 10
0.0
 20
1.0
 30
0.0
  9
$UCSORTHOREF
  2

  9
$UCSORTHOVIEW
 70
     0
  9
$UCSORGTOP
 10
0.0
 20
0.0
 30
0.0
  9
$UCSORGBOTTOM
 10
0.0
 20
0.0
 30
0.0
  9
$UCSORGLEFT
 10
0.0
 20
0.0
 30
0.0
  9
$UCSORGRIGHT
 10
0.0
 20
0.0
 30
0.0
  9
$UCSORGFRONT
 10
0.0
 20
0.0
 30
0.0
  9
$UCSORGBACK
 10
0.0
 20
0.0
 30
0.0
  9
$PUCSBASE
  2

  9
$PUCSNAME
  2

  9
$PUCSORG
 10
0.0
 20
0.0
 30
0.0
  9
$PUCSXDIR
 10
1.0
 20
0.0
 30
0.0
  9
$PUCSYDIR
 10
0.0
 20
1.0
 30
0.0
  9
$PUCSORTHOREF
  2

  9
$PUCSORTHOVIEW
 70
     0
  9
$PUCSORGTOP
 10
0.0
 20
0.0
 30
0.0
  9
$PUCSORGBOTTOM
 10
0.0
 20
0.0
 30
0.0
  9
$PUCSORGLEFT
 10
0.0
 20
0.0
 30
0.0
  9
$PUCSORGRIGHT
 10
0.0
 20
0.0
 30
0.0
  9
$PUCSORGFRONT
 10
0.0
 20
0.0
 30
0.0
  9
$PUCSORGBACK
 10
0.0
 20
0.0
 30
0.0
  9
$USERI1
 70
     0
  9
$USERI2
 70
     0
  9
$USERI3
 70
     0
  9
$USERI4
 70
     0
  9
$USERI5
 70
     0
  9
$USERR1
 40
0.0
  9
$USERR2
 40
0.0
  9
$USERR3
 40
0.0
  9
$USERR4
 40
0.0
  9
$USERR5
 40
0.0
  9
$WORLDVIEW
 70
     1
  9
$SHADEDGE
 70
     3
  9
$SHADEDIF
 70
    70
  9
$TILEMODE
 70
     1
  9
$MAXACTVP
 70
    64
  9
$PINSBASE
 10
0.0
 20
0.0
 30
0.0
  9
$PLIMCHECK
 70
     0
  9
$PEXTMIN
 10
-0.5
 20
-0.5
 30
-0.5
  9
$PEXTMAX
 10
5.0
 20
5.0
 30
5.0
  9
$PLIMMIN
 10
-0.5
 20
-0.5
  9
$PLIMMAX
 10
5.0
 20
5.0
  9
$UNITMODE
 70
     0
  9
$VISRETAIN
 70
     1
  9
$PLINEGEN
 70
     0
  9
$PSLTSCALE
 70
     1
  9
$TREEDEPTH
 70
  3020
  9
$CMLSTYLE
  2
Standard
  9
$CMLJUST
 70
     0
  9
$CMLSCALE
 40
1.0
  9
$PROXYGRAPHICS
 70
     1
  9
$MEASUREMENT
 70
     1
  9
$CELWEIGHT
370
    18
  9
$ENDCAPS
280
     0
  9
$JOINSTYLE
280
     0
  9
$LWDISPLAY
290
     1
  9
$INSUNITS
 70
     4
  9
$HYPERLINKBASE
  1

  9
$STYLESHEET
  1

  9
$XEDIT
290
     1
  9
$CEPSNTYPE
380
     0
  9
$PSTYLEMODE
290
     1
  9
$FINGERPRINTGUID
  2
{C27FCF0B-9618-41B3-83E3-815D2CDBB362}
  9
$VERSIONGUID
  2
{FAEB1C32-E019-11D5-929B-00C0DF256EC4}
  9
$EXTNAMES
290
     1
  9
$PSVPSCALE
 40
0.0
  9
$OLESTARTUP
290
     0
  9
$SORTENTS
280
   127
  9
$INDEXCTL
280
     0
  9
$HIDETEXT
280
     1
  9
$XCLIPFRAME
290
     0
  9
$HALOGAP
280
     0
  9
$OBSCOLOR
 70
   257
  9
$OBSLTYPE
280
     0
  9
$INTERSECTIONDISPLAY
280
     0
  9
$INTERSECTIONCOLOR
 70
   257
  9
$DIMASSOC
280
     2
  9
$PROJECTNAME
  1

  0
ENDSEC
  0
SECTION
  2
CLASSES
  0
CLASS
  1
ACDBDICTIONARYWDFLT
  2
AcDbDictionaryWithDefault
  3
ObjectDBX Classes
 90
        0
 91
        3
280
     0
281
     0
  0
CLASS
  1
VISUALSTYLE
  2
AcDbVisualStyle
  3
ObjectDBX Classes
 90
     4095
 91
        3
280
     0
281
     0
  0
CLASS
  1
MATERIAL
  2
AcDbMaterial
  3
ObjectDBX Classes
 90
     1153
 91
        3
280
     0
281
     0
  0
CLASS
  1
SCALE
  2
AcDbScale
  3
ObjectDBX Classes
 90
     1153
 91
        3
280
     0
281
     0
  0
CLASS
  1
TABLESTYLE
  2
AcDbTableStyle
  3
ObjectDBX Classes
 90
     4095
 91
        3
280
     0
281
     0
  0
CLASS
  1
MLEADERSTYLE
  2
AcDbMLeaderStyle
  3
ACDB_MLEADERSTYLE_CLASS
 90
     4095
 91
        3
280
     0
281
     0
  0
CLASS
  1
SUN
  2
AcDbSun
  3
SCENEOE
 90
     1153
 91
        3
280
     0
281
     0
  0
CLASS
  1
DICTIONARYVAR
  2
AcDbDictionaryVar
  3
ObjectDBX Classes
 90
        0
 91
        3
280
     0
281
     0
  0
CLASS
  1
CELLSTYLEMAP
  2
AcDbCellStyleMap
  3
ObjectDBX Classes
 90
     1152
 91
        3
280
     0
281
     0
  0
ENDSEC
  0
SECTION
  2
TABLES
  0
TABLE
  2
VPORT
  5
8
102
{ACAD_XDICTIONARY
360
1E3
102
}
330
0
100
AcDbSymbolTable
 70
    16
  0
VPORT
  5
29
330
8
100
AcDbSymbolTableRecord
100
AcDbViewportTableRecord
  2
*Active
 70
     0
 10
0.0
 20
0.0
 11
1.0
 21
1.0
 12
184.035768
 22
142.681312
 13
0.0
 23
0.0
 14
0.5
 24
0.5
 15
0.5
 25
0.5
 16
0.0
 26
0.0
 36
1.0
 17
0.0
 27
0.0
 37
0.0
 40
254.0
 41
0.069908
 42
50.0
 43
422.601532
 44
-422.601532
 50
0.0
 51
0.0
 71
     0
 72
   100
 73
     1
 74
     3
 75
     0
 76
     0
 77
     0
 78
     0
281
     0
 65
     1
110
0.0
120
0.0
130
0.0
111
1.0
121
0.0
131
0.0
112
0.0
122
1.0
132
0.0
 79
     0
146
0.0
  0
VPORT
  5
1D4
330
8
100
AcDbSymbolTableRecord
100
AcDbViewportTableRecord
  2
L1
 70
     0
 10
0.0
 20
0.0
 11
1.0
 21
1.0
 12
184.035768
 22
142.681312
 13
0.0
 23
0.0
 14
0.5
 24
0.5
 15
0.5
 25
0.5
 16
0.0
 26
0.0
 36
1.0
 17
0.0
 27
0.0
 37
0.0
 40
254.0
 41
0.069908
 42
50.0
 43
422.601532
 44
-422.601532
 50
0.0
 51
0.0
 71
     0
 72
   100
 73
     1
 74
     3
 75
     0
 76
     0
 77
     0
 78
     0
281
     0
 65
     1
110
0.0
120
0.0
130
0.0
111
1.0
121
0.0
131
0.0
112
0.0
122
1.0
132
0.0
 79
     0
146
0.0
  0
VPORT
  5
1D5
330
8
100
AcDbSymbolTableRecord
100
AcDbViewportTableRecord
  2
L2
 70
     0
 10
0.0
 20
0.0
 11
0.5
 21
1.0
 12
0.0
 22
0.0
 13
0.0
 23
0.0
 14
0.5
 24
0.5
 15
0.5
 25
0.5
 16
0.0
 26
-1.0
 36
0.0
 17
0.0
 27
0.0
 37
0.0
 40
1561.507085
 41
0.011372
 42
50.0
 43
803.149283
 44
-803.149283
 50
0.0
 51
0.0
 71
     0
 72
   100
 73
     1
 74
     3
 75
     0
 76
     0
 77
     0
 78
     0
281
     0
 65
     1
110
0.0
120
0.0
130
0.0
111
1.0
121
0.0
131
0.0
112
0.0
122
1.0
132
0.0
 79
     0
146
0.0
  0
VPORT
  5
1D6
330
8
100
AcDbSymbolTableRecord
100
AcDbViewportTableRecord
  2
L2
 70
     0
 10
0.5
 20
0.0
 11
1.0
 21
1.0
 12
0.0
 22
0.0
 13
0.0
 23
0.0
 14
0.5
 24
0.5
 15
0.5
 25
0.5
 16
1.0
 26
0.0
 36
0.0
 17
0.0
 27
0.0
 37
0.0
 40
1561.507085
 41
0.011372
 42
50.0
 43
791.01523
 44
-791.01523
 50
0.0
 51
0.0
 71
     0
 72
   100
 73
     1
 74
     3
 75
     0
 76
     0
 77
     0
 78
     0
281
     0
 65
     1
110
0.0
120
0.0
130
0.0
111
1.0
121
0.0
131
0.0
112
0.0
122
1.0
132
0.0
 79
     0
146
0.0
  0
VPORT
  5
1D7
330
8
100
AcDbSymbolTableRecord
100
AcDbViewportTableRecord
  2
L3
 70
     0
 10
0.0
 20
0.5
 11
1.0
 21
1.0
 12
184.035768
 22
142.681312
 13
0.0
 23
0.0
 14
0.5
 24
0.5
 15
0.5
 25
0.5
 16
0.0
 26
0.0
 36
1.0
 17
0.0
 27
0.0
 37
0.0
 40
254.0
 41
0.069908
 42
50.0
 43
422.601532
 44
-422.601532
 50
0.0
 51
0.0
 71
     0
 72
   100
 73
     1
 74
     3
 75
     0
 76
     0
 77
     0
 78
     0
281
     0
 65
     1
110
0.0
120
0.0
130
0.0
111
1.0
121
0.0
131
0.0
112
0.0
122
1.0
132
0.0
 79
     0
146
0.0
  0
VPORT
  5
1D8
330
8
100
AcDbSymbolTableRecord
100
AcDbViewportTableRecord
  2
L3
 70
     0
 10
0.0
 20
0.0
 11
1.0
 21
0.5
 12
0.0
 22
0.0
 13
0.0
 23
0.0
 14
0.5
 24
0.5
 15
0.5
 25
0.5
 16
0.0
 26
-1.0
 36
0.0
 17
0.0
 27
0.0
 37
0.0
 40
1561.507085
 41
0.011372
 42
50.0
 43
803.149283
 44
-803.149283
 50
0.0
 51
0.0
 71
     0
 72
   100
 73
     1
 74
     3
 75
     0
 76
     0
 77
     0
 78
     0
281
     0
 65
     1
110
0.0
120
0.0
130
0.0
111
1.0
121
0.0
131
0.0
112
0.0
122
1.0
132
0.0
 79
     0
146
0.0
  0
VPORT
  5
1D9
330
8
100
AcDbSymbolTableRecord
100
AcDbViewportTableRecord
  2
L4
 70
     0
 10
0.0
 20
0.5
 11
0.5
 21
1.0
 12
184.035768
 22
142.681312
 13
0.0
 23
0.0
 14
0.5
 24
0.5
 15
0.5
 25
0.5
 16
0.0
 26
0.0
 36
1.0
 17
0.0
 27
0.0
 37
0.0
 40
254.0
 41
0.069908
 42
50.0
 43
422.601532
 44
-422.601532
 50
0.0
 51
0.0
 71
     0
 72
   100
 73
     1
 74
     3
 75
     0
 76
     0
 77
     0
 78
     0
281
     0
 65
     1
110
0.0
120
0.0
130
0.0
111
1.0
121
0.0
131
0.0
112
0.0
122
1.0
132
0.0
 79
     0
146
0.0
  0
VPORT
  5
1DA
330
8
100
AcDbSymbolTableRecord
100
AcDbViewportTableRecord
  2
L4
 70
     0
 10
0.0
 20
0.0
 11
0.5
 21
0.5
 12
0.0
 22
0.0
 13
0.0
 23
0.0
 14
0.5
 24
0.5
 15
0.5
 25
0.5
 16
0.0
 26
-1.0
 36
0.0
 17
0.0
 27
0.0
 37
0.0
 40
1561.507085
 41
0.011372
 42
50.0
 43
803.149283
 44
-803.149283
 50
0.0
 51
0.0
 71
     0
 72
   100
 73
     1
 74
     3
 75
     0
 76
     0
 77
     0
 78
     0
281
     0
 65
     1
110
0.0
120
0.0
130
0.0
111
1.0
121
0.0
131
0.0
112
0.0
122
1.0
132
0.0
 79
     0
146
0.0
  0
VPORT
  5
1DB
330
8
100
AcDbSymbolTableRecord
100
AcDbViewportTableRecord
  2
L4
 70
     0
 10
0.5
 20
0.0
 11
1.0
 21
0.5
 12
0.0
 22
0.0
 13
0.0
 23
0.0
 14
0.5
 24
0.5
 15
0.5
 25
0.5
 16
1.0
 26
0.0
 36
0.0
 17
0.0
 27
0.0
 37
0.0
 40
1561.507085
 41
0.011372
 42
50.0
 43
791.01523
 44
-791.01523
 50
0.0
 51
0.0
 71
     0
 72
   100
 73
     1
 74
     3
 75
     0
 76
     0
 77
     0
 78
     0
281
     0
 65
     1
110
0.0
120
0.0
130
0.0
111
1.0
121
0.0
131
0.0
112
0.0
122
1.0
132
0.0
 79
     0
146
0.0
  0
VPORT
  5
1DC
330
8
100
AcDbSymbolTableRecord
100
AcDbViewportTableRecord
  2
L4
 70
     0
 10
0.5
 20
0.5
 11
1.0
 21
1.0
 12
0.0
 22
0.0
 13
0.0
 23
0.0
 14
0.5
 24
0.5
 15
0.5
 25
0.5
 16
0.5773502691896258
 26
-0.5773502691896258
 36
0.5773502691896258
 17
0.0
 27
0.0
 37
0.0
 40
1532.440792
 41
0.011587
 42
50.0
 43
798.006239
 44
-798.006239
 50
0.0
 51
0.0
 71
     0
 72
   100
 73
     1
 74
     3
 75
     0
 76
     0
 77
     0
 78
     0
281
     0
 65
     1
110
0.0
120
0.0
130
0.0
111
1.0
121
0.0
131
0.0
112
0.0
122
1.0
132
0.0
 79
     0
146
0.0
  0
VPORT
  5
1DD
330
8
100
AcDbSymbolTableRecord
100
AcDbViewportTableRecord
  2
L6
 70
     0
 10
0.0
 20
0.5
 11
0.333333
 21
1.0
 12
0.0
 22
0.0
 13
0.0
 23
0.0
 14
0.5
 24
0.5
 15
0.5
 25
0.5
 16
0.7188730927569433
 26
-0.5850486126764433
 36
0.3754192287502549
 17
0.0
 27
0.0
 37
0.0
 40
1617.163281
 41
0.01098
 42
50.0
 43
837.294026
 44
-837.294026
 50
0.0
 51
0.0
 71
     0
 72
   100
 73
     1
 74
     3
 75
     0
 76
     0
 77
     0
 78
     0
281
     0
 65
     1
110
0.0
120
0.0
130
0.0
111
1.0
121
0.0
131
0.0
112
0.0
122
1.0
132
0.0
 79
     0
146
0.0
  0
VPORT
  5
1DE
330
8
100
AcDbSymbolTableRecord
100
AcDbViewportTableRecord
  2
L6
 70
     0
 10
0.0
 20
0.0
 11
0.333333
 21
0.5
 12
0.0
 22
0.0
 13
0.0
 23
0.0
 14
0.5
 24
0.5
 15
0.5
 25
0.5
 16
-1.0
 26
0.0
 36
0.0
 17
0.0
 27
0.0
 37
0.0
 40
1561.507085
 41
0.011372
 42
50.0
 43
791.01523
 44
-791.01523
 50
0.0
 51
0.0
 71
     0
 72
   100
 73
     1
 74
     3
 75
     0
 76
     0
 77
     0
 78
     0
281
     0
 65
     1
110
0.0
120
0.0
130
0.0
111
1.0
121
0.0
131
0.0
112
0.0
122
1.0
132
0.0
 79
     0
146
0.0
  0
VPORT
  5
1DF
330
8
100
AcDbSymbolTableRecord
100
AcDbViewportTableRecord
  2
L6
 70
     0
 10
0.333333
 20
0.5
 11
0.666667
 21
1.0
 12
184.035768
 22
142.681312
 13
0.0
 23
0.0
 14
0.5
 24
0.5
 15
0.5
 25
0.5
 16
0.0
 26
0.0
 36
1.0
 17
0.0
 27
0.0
 37
0.0
 40
254.0
 41
0.069908
 42
50.0
 43
422.601532
 44
-422.601532
 50
0.0
 51
0.0
 71
     0
 72
   100
 73
     1
 74
     3
 75
     0
 76
     0
 77
     0
 78
     0
281
     0
 65
     1
110
0.0
120
0.0
130
0.0
111
1.0
121
0.0
131
0.0
112
0.0
122
1.0
132
0.0
 79
     0
146
0.0
  0
VPORT
  5
1E0
330
8
100
AcDbSymbolTableRecord
100
AcDbViewportTableRecord
  2
L6
 70
     0
 10
0.333333
 20
0.0
 11
0.666667
 21
0.5
 12
0.0
 22
0.0
 13
0.0
 23
0.0
 14
0.5
 24
0.5
 15
0.5
 25
0.5
 16
0.0
 26
-1.0
 36
0.0
 17
0.0
 27
0.0
 37
0.0
 40
1561.507085
 41
0.011372
 42
50.0
 43
803.149283
 44
-803.149283
 50
0.0
 51
0.0
 71
     0
 72
   100
 73
     1
 74
     3
 75
     0
 76
     0
 77
     0
 78
     0
281
     0
 65
     1
110
0.0
120
0.0
130
0.0
111
1.0
121
0.0
131
0.0
112
0.0
122
1.0
132
0.0
 79
     0
146
0.0
  0
VPORT
  5
1E1
330
8
100
AcDbSymbolTableRecord
100
AcDbViewportTableRecord
  2
L6
 70
     0
 10
0.666667
 20
0.5
 11
1.0
 21
1.0
 12
0.0
 22
0.0
 13
0.0
 23
0.0
 14
0.5
 24
0.5
 15
0.5
 25
0.5
 16
0.5773502691896258
 26
-0.5773502691896258
 36
0.5773502691896258
 17
0.0
 27
0.0
 37
0.0
 40
1532.440792
 41
0.011587
 42
50.0
 43
798.006239
 44
-798.006239
 50
0.0
 51
0.0
 71
     0
 72
   100
 73
     1
 74
     3
 75
     0
 76
     0
 77
     0
 78
     0
281
     0
 65
     1
110
0.0
120
0.0
130
0.0
111
1.0
121
0.0
131
0.0
112
0.0
122
1.0
132
0.0
 79
     0
146
0.0
  0
VPORT
  5
1E2
330
8
100
AcDbSymbolTableRecord
100
AcDbViewportTableRecord
  2
L6
 70
     0
 10
0.666667
 20
0.0
 11
1.0
 21
0.5
 12
0.0
 22
0.0
 13
0.0
 23
0.0
 14
0.5
 24
0.5
 15
0.5
 25
0.5
 16
1.0
 26
0.0
 36
0.0
 17
0.0
 27
0.0
 37
0.0
 40
1561.507085
 41
0.011372
 42
50.0
 43
791.01523
 44
-791.01523
 50
0.0
 51
0.0
 71
     0
 72
   100
 73
     1
 74
     3
 75
     0
 76
     0
 77
     0
 78
     0
281
     0
 65
     1
110
0.0
120
0.0
130
0.0
111
1.0
121
0.0
131
0.0
112
0.0
122
1.0
132
0.0
 79
     0
146
0.0
  0
ENDTAB
  0
TABLE
  2
LTYPE
  5
5
330
0
100
AcDbSymbolTable
 70
     6
  0
LTYPE
  5
14
330
5
100
AcDbSymbolTableRecord
100
AcDbLinetypeTableRecord
  2
ByBlock
 70
     0
  3

 72
    65
 73
     0
 40
0.0
  0
LTYPE
  5
15
330
5
100
AcDbSymbolTableRecord
100
AcDbLinetypeTableRecord
  2
ByLayer
 70
     0
  3

 72
    65
 73
     0
 40
0.0
  0
LTYPE
  5
16
330
5
100
AcDbSymbolTableRecord
100
AcDbLinetypeTableRecord
  2
Continuous
 70
     0
  3
Solid line
 72
    65
 73
     0
 40
0.0
  0
LTYPE
  5
6E
330
5
100
AcDbSymbolTableRecord
100
AcDbLinetypeTableRecord
  2
CENTER
 70
     0
  3
____ _ ____ _ ____ _ ____
 72
    65
 73
     4
 40
47.4
 49
22.0
 74
     4
 75
     0
340
0
 46
0.0
 50
0.0
 44
0.0
 45
0.0
 49
-8.5
 74
     4
 75
     0
340
0
 46
0.0
 50
0.0
 44
0.0
 45
0.0
 49
8.5
 74
     4
 75
     0
340
0
 46
0.0
 50
0.0
 44
0.0
 45
0.0
 49
-8.5
 74
     4
 75
     0
340
0
 46
0.0
 50
0.0
 44
0.0
 45
0.0
  0
LTYPE
  5
6F
330
5
100
AcDbSymbolTableRecord
100
AcDbLinetypeTableRecord
  2
DASHDOT
 70
     0
  3
_._._._._._._._._._._._._._._._.
 72
    65
 73
     4
 40
70.0
 49
31.0
 74
     4
 75
     0
340
0
 46
0.0
 50
0.0
 44
0.0
 45
0.0
 49
-13.0
 74
     4
 75
     0
340
0
 46
0.0
 50
0.0
 44
0.0
 45
0.0
 49
13.0
 74
     4
 75
     0
340
0
 46
0.0
 50
0.0
 44
0.0
 45
0.0
 49
-13.0
 74
     4
 75
     0
340
0
 46
0.0
 50
0.0
 44
0.0
 45
0.0
  0
LTYPE
  5
70
330
5
100
AcDbSymbolTableRecord
100
AcDbLinetypeTableRecord
  2
DASHED
 70
     0
  3
__ __ __ __ __ __ __ __ __
 72
    65
 73
     2
 40
25.72
 49
12.86
 74
     4
 75
     0
340
0
 46
0.0
 50
0.0
 44
0.0
 45
0.0
 49
-12.86
 74
     4
 75
     0
340
0
 46
0.0
 50
0.0
 44
0.0
 45
0.0
  0
LTYPE
  5
71
330
5
100
AcDbSymbolTableRecord
100
AcDbLinetypeTableRecord
  2
DOT
 70
     0
  3
.........................
 72
    65
 73
     2
 40
10.0
 49
0.0
 74
     4
 75
     0
340
0
 46
0.0
 50
0.0
 44
0.0
 45
0.0
 49
-10.0
 74
     4
 75
     0
340
0
 46
0.0
 50
0.0
 44
0.0
 45
0.0
  0
LTYPE
  5
72
330
5
100
AcDbSymbolTableRecord
100
AcDbLinetypeTableRecord
  2
PHANTOM
 70
     0
  3
____ _ _ ____ _ _ _____ _ _ ____
 72
    65
 73
     6
 40
50.5
 49
18.0
 74
     4
 75
     0
340
0
 46
0.0
 50
0.0
 44
0.0
 45
0.0
 49
-6.5
 74
     4
 75
     0
340
0
 46
0.0
 50
0.0
 44
0.0
 45
0.0
 49
6.5
 74
     4
 75
     0
340
0
 46
0.0
 50
0.0
 44
0.0
 45
0.0
 49
-6.5
 74
     4
 75
     0
340
0
 46
0.0
 50
0.0
 44
0.0
 45
0.0
 49
6.5
 74
     4
 75
     0
340
0
 46
0.0
 50
0.0
 44
0.0
 45
0.0
 49
-6.5
 74
     4
 75
     0
340
0
 46
0.0
 50
0.0
 44
0.0
 45
0.0
  0
ENDTAB
  0
TABLE
  2
LAYER
  5
2
330
0
100
AcDbSymbolTable
 70
     2
  0
LAYER
  5
10
330
2
100
AcDbSymbolTableRecord
100
AcDbLayerTableRecord
  2
0
 70
     0
 62
     7
  6
Continuous
370
    -3
390
F
  0
LAYER
  5
74
330
2
100
AcDbSymbolTableRecord
100
AcDbLayerTableRecord
  2
1
 70
     0
 62
     7
420
 16777215
  6
Continuous
370
    -3
390
F
  0
ENDTAB
  0
TABLE
  2
STYLE
  5
3
330
0
100
AcDbSymbolTable
 70
     1
  0
STYLE
  5
11
330
3
100
AcDbSymbolTableRecord
100
AcDbTextStyleTableRecord
  2
Standard
 70
     0
 40
0.0
 41
1.0
 50
0.0
 71
     0
 42
0.2
  3
txt
  4

  0
ENDTAB
  0
TABLE
  2
VIEW
  5
6
330
0
100
AcDbSymbolTable
 70
     0
  0
ENDTAB
  0
TABLE
  2
UCS
  5
7
330
0
100
AcDbSymbolTable
 70
     0
  0
ENDTAB
  0
TABLE
  2
APPID
  5
9
330
0
100
AcDbSymbolTable
 70
     2
  0
APPID
  5
12
330
9
100
AcDbSymbolTableRecord
100
AcDbRegAppTableRecord
  2
ACAD
 70
     0
  0
APPID
  5
222
330
9
100
AcDbSymbolTableRecord
100
AcDbRegAppTableRecord
  2
ACAD_MLEADERVER
 70
     0
  0
ENDTAB
  0
TABLE
  2
DIMSTYLE
  5
A
330
0
100
AcDbSymbolTable
 70
     1
100
AcDbDimStyleTable
  0
DIMSTYLE
105
27
330
A
100
AcDbSymbolTableRecord
100
AcDbDimStyleTableRecord
  2
Standard
 70
     0
178
     0
340
11
  0
ENDTAB
  0
TABLE
  2
BLOCK_RECORD
  5
1
330
0
100
AcDbSymbolTable
 70
     1
  0
BLOCK_RECORD
  5
1F
330
1
100
AcDbSymbolTableRecord
100
AcDbBlockTableRecord
  2
*Model_Space
340
22
  0
BLOCK_RECORD
  5
1B
330
1
100
AcDbSymbolTableRecord
100
AcDbBlockTableRecord
  2
*Paper_Space
340
1E
  0
BLOCK_RECORD
  5
23
330
1
100
AcDbSymbolTableRecord
100
AcDbBlockTableRecord
  2
*Paper_Space0
340
26
  0
ENDTAB
  0
ENDSEC
  0
SECTION
  2
BLOCKS
  0
BLOCK
  5
20
330
1F
100
AcDbEntity
  8
0
100
AcDbBlockBegin
  2
*Model_Space
 70
     0
 10
0.0
 20
0.0
 30
0.0
  3
*Model_Space
  1

  0
ENDBLK
  5
21
330
1F
100
AcDbEntity
  8
0
100
AcDbBlockEnd
  0
BLOCK
  5
1C
330
1B
100
AcDbEntity
 67
     1
  8
0
100
AcDbBlockBegin
  2
*Paper_Space
 70
     0
 10
0.0
 20
0.0
 30
0.0
  3
*Paper_Space
  1

  0
ENDBLK
  5
1D
330
1B
100
AcDbEntity
 67
     1
  8
0
100
AcDbBlockEnd
  0
BLOCK
  5
24
330
23
100
AcDbEntity
  8
0
100
AcDbBlockBegin
  2
*Paper_Space0
 70
     0
 10
0.0
 20
0.0
 30
0.0
  3
*Paper_Space0
  1

  0
ENDBLK
  5
25
330
23
100
AcDbEntity
  8
0
100
AcDbBlockEnd
  0
ENDSEC
  0
SECTION
  2
ENTITIES
  0
POINT
  5
73
330
1F
100
AcDbEntity
  8
1
  6
Continuous
 62
    30
 60
     1
370
    13
100
AcDbPoint
 10
254.128834
 20
159.623188
 30
0.0
  0
POINT
  5
75
330
1F
100
AcDbEntity
  8
1
  6
Continuous
 62
    30
 60
     1
370
    13
100
AcDbPoint
 10
254.128834
 20
200.01052
 30
0.0
  0
POINT
  5
76
330
1F
100
AcDbEntity
  8
1
  6
Continuous
 62
    30
 60
     1
370
    13
100
AcDbPoint
 10
119.823687
 20
159.623188
 30
0.0
  0
POINT
  5
77
330
1F
100
AcDbEntity
  8
1
  6
Continuous
 62
    30
 60
     1
370
    13
100
AcDbPoint
 10
119.823687
 20
200.01052
 30
0.0
  0
LINE
  5
78
330
1F
100
AcDbEntity
  8
1
  6
Continuous
 62
    40
370
    18
100
AcDbLine
 10
128.323687
 20
197.864438
 30
0.0
 11
128.323687
 21
198.123188
 31
0.0
  0
LINE
  5
79
330
1F
100
AcDbEntity
  8
1
  6
Continuous
 62
    40
370
    18
100
AcDbLine
 10
111.323687
 20
198.123188
 30
0.0
 11
111.323687
 21
197.852133
 31
0.0
  0
LINE
  5
7A
330
1F
100
AcDbEntity
  8
1
  6
Continuous
 62
    40
370
    18
100
AcDbLine
 10
99.823687
 20
184.123188
 30
0.0
 11
99.823687
 21
181.123188
 31
0.0
  0
LINE
  5
7B
330
1F
100
AcDbEntity
  8
1
  6
Continuous
 62
    40
370
    18
100
AcDbLine
 10
139.823687
 20
181.123188
 30
0.0
 11
139.823687
 21
184.123188
 31
0.0
  0
LINE
  5
7C
330
1F
100
AcDbEntity
  8
1
  6
Continuous
 62
    40
370
    18
100
AcDbLine
 10
125.823687
 20
163.123188
 30
0.0
 11
125.823687
 21
181.123188
 31
0.0
  0
LINE
  5
7D
330
1F
100
AcDbEntity
  8
1
  6
Continuous
 62
    40
370
    18
100
AcDbLine
 10
113.823687
 20
181.123188
 30
0.0
 11
113.823687
 21
163.123188
 31
0.0
  0
LINE
  5
7E
330
1F
100
AcDbEntity
  8
1
  6
Continuous
 62
    40
370
    18
100
AcDbLine
 10
134.823687
 20
184.123188
 30
0.0
 11
143.426284
 21
198.51052
 31
0.0
  0
LINE
  5
7F
330
1F
100
AcDbEntity
  8
1
  6
Continuous
 62
    40
370
    18
100
AcDbLine
 10
96.22109
 20
198.51052
 30
0.0
 11
104.823687
 21
184.123188
 31
0.0
  0
LINE
  5
80
330
1F
100
AcDbEntity
  8
1
  6
Continuous
 62
    40
370
    13
100
AcDbLine
 10
96.1546
 20
199.552846
 30
0.0
 11
97.187433
 21
200.123188
 31
0.0
  0
LINE
  5
81
330
1F
100
AcDbEntity
  8
1
  6
Continuous
 62
    40
370
    13
100
AcDbLine
 10
143.492774
 20
199.552846
 30
0.0
 11
142.459941
 21
200.123188
 31
0.0
  0
LINE
  5
82
330
1F
100
AcDbEntity
  8
1
  6
Continuous
 62
    40
370
    18
100
AcDbLine
 10
128.323687
 20
198.123188
 30
0.0
 11
111.323687
 21
198.123188
 31
0.0
  0
LINE
  5
83
330
1F
100
AcDbEntity
  8
1
  6
Continuous
 62
    40
370
    13
100
AcDbLine
 10
130.263945
 20
201.354839
 30
0.0
 11
132.323808
 21
200.123188
 31
0.0
  0
LINE
  5
84
330
1F
100
AcDbEntity
  8
1
  6
Continuous
 62
    40
370
    18
100
AcDbLine
 10
129.417601
 20
199.93938
 30
0.0
 11
130.263945
 21
201.354839
 31
0.0
  0
LINE
  5
85
330
1F
100
AcDbEntity
  8
1
  6
Continuous
 62
    40
370
    13
100
AcDbLine
 10
132.323808
 20
200.123188
 30
0.0
 11
142.459941
 21
200.123188
 31
0.0
  0
LINE
  5
86
330
1F
100
AcDbEntity
  8
1
  6
Continuous
 62
    40
370
    13
100
AcDbLine
 10
132.323808
 20
200.123188
 30
0.0
 11
129.094993
 21
197.123188
 31
0.0
  0
LINE
  5
87
330
1F
100
AcDbEntity
  8
1
  6
Continuous
 62
    40
370
    18
100
AcDbLine
 10
139.823687
 20
181.123188
 30
0.0
 11
99.823687
 21
181.123188
 31
0.0
  0
LINE
  5
88
330
1F
100
AcDbEntity
  8
1
  6
Continuous
 62
    40
370
    18
100
AcDbLine
 10
139.823687
 20
184.123188
 30
0.0
 11
99.823687
 21
184.123188
 31
0.0
  0
LINE
  5
89
330
1F
100
AcDbEntity
  8
1
  6
Continuous
 62
    40
370
    18
100
AcDbLine
 10
125.823687
 20
163.123188
 30
0.0
 11
113.823687
 21
163.123188
 31
0.0
  0
LINE
  5
8A
330
1F
100
AcDbEntity
  8
1
  6
Continuous
 62
    40
370
    13
100
AcDbLine
 10
132.697831
 20
205.425369
 30
0.0
 11
134.757694
 21
204.193718
 31
0.0
  0
LINE
  5
8B
330
1F
100
AcDbEntity
  8
1
  6
Continuous
 62
    40
370
    18
100
AcDbLine
 10
130.263945
 20
201.354839
 30
0.0
 11
132.697831
 21
205.425369
 31
0.0
  0
LINE
  5
8C
330
1F
100
AcDbEntity
  8
1
  6
Continuous
 62
    40
370
    13
100
AcDbLine
 10
134.757694
 20
204.193718
 30
0.0
 11
132.323808
 21
200.123188
 31
0.0
  0
LINE
  5
8D
330
1F
100
AcDbEntity
  8
1
  6
Continuous
 62
    40
370
    18
100
AcDbLine
 10
106.949543
 20
205.425369
 30
0.0
 11
109.383429
 21
201.354839
 31
0.0
  0
LINE
  5
8E
330
1F
100
AcDbEntity
  8
1
  6
Continuous
 62
    40
370
    13
100
AcDbLine
 10
106.949543
 20
205.425369
 30
0.0
 11
104.88968
 21
204.193718
 31
0.0
  0
LINE
  5
8F
330
1F
100
AcDbEntity
  8
1
  6
Continuous
 62
    40
370
    13
100
AcDbLine
 10
107.323566
 20
200.123188
 30
0.0
 11
104.88968
 21
204.193718
 31
0.0
  0
LINE
  5
90
330
1F
100
AcDbEntity
  8
1
  6
Continuous
 62
    40
370
    18
100
AcDbLine
 10
109.383429
 20
201.354839
 30
0.0
 11
110.229773
 21
199.93938
 31
0.0
  0
LINE
  5
91
330
1F
100
AcDbEntity
  8
1
  6
Continuous
 62
    40
370
    13
100
AcDbLine
 10
109.383429
 20
201.354839
 30
0.0
 11
107.323566
 21
200.123188
 31
0.0
  0
LINE
  5
92
330
1F
100
AcDbEntity
  8
1
  6
Continuous
 62
    40
370
    13
100
AcDbLine
 10
110.552381
 20
197.123188
 30
0.0
 11
107.323566
 21
200.123188
 31
0.0
  0
LINE
  5
93
330
1F
100
AcDbEntity
  8
1
  6
Continuous
 62
    40
370
    13
100
AcDbLine
 10
97.187433
 20
200.123188
 30
0.0
 11
107.323566
 21
200.123188
 31
0.0
  0
LINE
  5
94
330
1F
100
AcDbEntity
  8
1
  6
Continuous
 62
    40
370
    18
100
AcDbLine
 10
101.229913
 20
197.123188
 30
0.0
 11
138.417461
 21
197.123188
 31
0.0
  0
LINE
  5
95
330
1F
100
AcDbEntity
  8
1
  6
Continuous
 62
    40
370
    13
100
AcDbLine
 10
96.22109
 20
198.51052
 30
0.0
 11
96.788567
 21
198.51052
 31
0.0
  0
LINE
  5
96
330
1F
100
AcDbEntity
  8
1
  6
Continuous
 62
    40
370
    13
100
AcDbLine
 10
143.426284
 20
198.51052
 30
0.0
 11
142.858806
 21
198.51052
 31
0.0
  0
LINE
  5
97
330
1F
100
AcDbEntity
  8
1
  6
Continuous
 62
    40
370
    13
100
AcDbLine
 10
139.344505
 20
195.307363
 30
0.0
 11
100.302869
 21
195.307363
 31
0.0
  0
LINE
  5
98
330
1F
100
AcDbEntity
  8
1
  6
Continuous
 62
    40
370
    18
100
AcDbLine
 10
269.128834
 20
184.123188
 30
0.0
 11
275.816172
 21
195.307363
 31
0.0
  0
LINE
  5
99
330
1F
100
AcDbEntity
  8
1
  6
Continuous
 62
    40
370
    18
100
AcDbLine
 10
232.441496
 20
195.307363
 30
0.0
 11
239.128834
 21
184.123188
 31
0.0
  0
LINE
  5
9A
330
1F
100
AcDbEntity
  8
1
  6
Continuous
 62
    40
370
    18
100
AcDbLine
 10
262.628834
 20
197.181469
 30
0.0
 11
262.628834
 21
198.123188
 31
0.0
  0
LINE
  5
9B
330
1F
100
AcDbEntity
  8
1
  6
Continuous
 62
    40
370
    18
100
AcDbLine
 10
245.628834
 20
198.123188
 30
0.0
 11
245.628834
 21
197.170571
 31
0.0
  0
LINE
  5
9C
330
1F
100
AcDbEntity
  8
1
  6
Continuous
 62
    40
370
    18
100
AcDbLine
 10
234.128834
 20
184.123188
 30
0.0
 11
234.128834
 21
181.123188
 31
0.0
  0
LINE
  5
9D
330
1F
100
AcDbEntity
  8
1
  6
Continuous
 62
    40
370
    18
100
AcDbLine
 10
274.128834
 20
181.123188
 30
0.0
 11
274.128834
 21
184.123188
 31
0.0
  0
LINE
  5
9E
330
1F
100
AcDbEntity
  8
1
  6
Continuous
 62
    40
370
    18
100
AcDbLine
 10
260.128834
 20
235.310408
 30
0.0
 11
261.128834
 21
235.310408
 31
0.0
  0
LINE
  5
9F
330
1F
100
AcDbEntity
  8
1
  6
Continuous
 62
    40
370
    18
100
AcDbLine
 10
261.128834
 20
236.478313
 30
0.0
 11
260.128834
 21
236.478313
 31
0.0
  0
LINE
  5
A0
330
1F
100
AcDbEntity
  8
1
  6
Continuous
 62
    40
370
    18
100
AcDbLine
 10
260.128834
 20
235.578313
 30
0.0
 11
261.128834
 21
235.578313
 31
0.0
  0
LINE
  5
A1
330
1F
100
AcDbEntity
  8
1
  6
Continuous
 62
    40
370
    18
100
AcDbLine
 10
261.128834
 20
235.169951
 30
0.0
 11
260.128834
 21
235.169951
 31
0.0
  0
LINE
  5
A2
330
1F
100
AcDbEntity
  8
1
  6
Continuous
 62
    40
370
    18
100
AcDbLine
 10
248.128834
 20
236.478313
 30
0.0
 11
247.128834
 21
236.478313
 31
0.0
  0
LINE
  5
A3
330
1F
100
AcDbEntity
  8
1
  6
Continuous
 62
    40
370
    18
100
AcDbLine
 10
261.128834
 20
234.74325
 30
0.0
 11
260.128834
 21
234.74325
 31
0.0
  0
LINE
  5
A4
330
1F
100
AcDbEntity
  8
1
  6
Continuous
 62
    40
370
    18
100
AcDbLine
 10
248.128834
 20
234.747009
 30
0.0
 11
247.128834
 21
234.747009
 31
0.0
  0
LINE
  5
A5
330
1F
100
AcDbEntity
  8
1
  6
Continuous
 62
    40
370
    18
100
AcDbLine
 10
247.128834
 20
231.659885
 30
0.0
 11
248.128834
 21
231.659885
 31
0.0
  0
LINE
  5
A6
330
1F
100
AcDbEntity
  8
1
  6
Continuous
 62
    40
370
    18
100
AcDbLine
 10
248.128834
 20
236.210408
 30
0.0
 11
247.128834
 21
236.210408
 31
0.0
  0
LINE
  5
A7
330
1F
100
AcDbEntity
  8
1
  6
Continuous
 62
    40
370
    18
100
AcDbLine
 10
247.128834
 20
234.985909
 30
0.0
 11
248.128834
 21
234.985909
 31
0.0
  0
LINE
  5
A8
330
1F
100
AcDbEntity
  8
1
  6
Continuous
 62
    40
370
    18
100
AcDbLine
 10
248.128834
 20
235.885909
 30
0.0
 11
247.128834
 21
235.885909
 31
0.0
  0
LINE
  5
A9
330
1F
100
AcDbEntity
  8
1
  6
Continuous
 62
    40
370
    18
100
AcDbLine
 10
260.128834
 20
163.123188
 30
0.0
 11
260.128834
 21
181.123188
 31
0.0
  0
LINE
  5
AA
330
1F
100
AcDbEntity
  8
1
  6
Continuous
 62
    40
370
    18
100
AcDbLine
 10
248.128834
 20
181.123188
 30
0.0
 11
248.128834
 21
163.123188
 31
0.0
  0
LINE
  5
AB
330
1F
100
AcDbEntity
  8
1
  6
Continuous
 62
    40
370
    18
100
AcDbLine
 10
233.471428
 20
197.123188
 30
0.0
 11
245.128834
 21
197.123188
 31
0.0
  0
LINE
  5
AC
330
1F
100
AcDbEntity
  8
1
  6
Continuous
 62
    40
370
    18
100
AcDbLine
 10
245.628834
 20
198.123188
 30
0.0
 11
247.343056
 21
198.123188
 31
0.0
  0
LINE
  5
AD
330
1F
100
AcDbEntity
  8
1
  6
Continuous
 62
    40
370
    18
100
AcDbLine
 10
260.917626
 20
198.123188
 30
0.0
 11
262.628834
 21
198.123188
 31
0.0
  0
LINE
  5
AE
330
1F
100
AcDbEntity
  8
1
  6
Continuous
 62
    40
370
    18
100
AcDbLine
 10
234.128834
 20
181.123188
 30
0.0
 11
274.128834
 21
181.123188
 31
0.0
  0
LINE
  5
AF
330
1F
100
AcDbEntity
  8
1
  6
Continuous
 62
    40
370
    18
100
AcDbLine
 10
234.128834
 20
184.123188
 30
0.0
 11
274.128834
 21
184.123188
 31
0.0
  0
LINE
  5
B0
330
1F
100
AcDbEntity
  8
1
  6
Continuous
 62
    40
370
    18
100
AcDbLine
 10
261.128834
 20
235.578332
 30
0.0
 11
261.128834
 21
235.310408
 31
0.0
  0
LINE
  5
B1
330
1F
100
AcDbEntity
  8
1
  6
Continuous
 62
    40
370
    18
100
AcDbLine
 10
261.128834
 20
236.478313
 30
0.0
 11
261.128834
 21
235.578313
 31
0.0
  0
LINE
  5
B2
330
1F
100
AcDbEntity
  8
1
  6
Continuous
 62
    40
370
    18
100
AcDbLine
 10
247.128834
 20
236.478313
 30
0.0
 11
247.128834
 21
236.21043
 31
0.0
  0
LINE
  5
B3
330
1F
100
AcDbEntity
  8
1
  6
Continuous
 62
    40
370
    18
100
AcDbLine
 10
247.128834
 20
236.210408
 30
0.0
 11
247.128834
 21
235.885911
 31
0.0
  0
LINE
  5
B4
330
1F
100
AcDbEntity
  8
1
  6
Continuous
 62
    40
370
    18
100
AcDbLine
 10
247.128834
 20
235.885909
 30
0.0
 11
247.128834
 21
235.435909
 31
0.0
  0
LINE
  5
B5
330
1F
100
AcDbEntity
  8
1
  6
Continuous
 62
    40
370
    18
100
AcDbLine
 10
247.128834
 20
235.435909
 30
0.0
 11
247.128834
 21
234.985909
 31
0.0
  0
LINE
  5
B6
330
1F
100
AcDbEntity
  8
1
  6
Continuous
 62
    40
370
    18
100
AcDbLine
 10
274.78624
 20
197.123188
 30
0.0
 11
263.128834
 21
197.123188
 31
0.0
  0
LINE
  5
B7
330
1F
100
AcDbEntity
  8
1
  6
Continuous
 62
    40
370
    18
100
AcDbLine
 10
247.128834
 20
231.601751
 30
0.0
 11
248.128834
 21
231.601751
 31
0.0
  0
LINE
  5
B8
330
1F
100
AcDbEntity
  8
1
  6
Continuous
 62
    40
370
    18
100
AcDbLine
 10
247.128834
 20
231.511694
 30
0.0
 11
248.128834
 21
231.511694
 31
0.0
  0
LINE
  5
B9
330
1F
100
AcDbEntity
  8
1
  6
Continuous
 62
    40
370
    18
100
AcDbLine
 10
261.128834
 20
235.296776
 30
0.0
 11
260.128834
 21
235.296776
 31
0.0
  0
LINE
  5
BA
330
1F
100
AcDbEntity
  8
1
  6
Continuous
 62
    40
370
    18
100
AcDbLine
 10
248.128834
 20
163.123188
 30
0.0
 11
260.128834
 21
163.123188
 31
0.0
  0
LINE
  5
BB
330
1F
100
AcDbEntity
  8
1
  6
Continuous
 62
    40
370
    18
100
AcDbLine
 10
261.128834
 20
231.511694
 30
0.0
 11
260.128834
 21
231.511694
 31
0.0
  0
LINE
  5
BC
330
1F
100
AcDbEntity
  8
1
  6
Continuous
 62
    40
370
    18
100
AcDbLine
 10
261.128834
 20
234.429779
 30
0.0
 11
260.128834
 21
234.429779
 31
0.0
  0
LINE
  5
BD
330
1F
100
AcDbEntity
  8
1
  6
Continuous
 62
    40
370
    18
100
AcDbLine
 10
261.128834
 20
234.511768
 30
0.0
 11
260.128834
 21
234.511768
 31
0.0
  0
LINE
  5
BE
330
1F
100
AcDbEntity
  8
1
  6
Continuous
 62
    40
370
    18
100
AcDbLine
 10
247.128834
 20
234.512741
 30
0.0
 11
248.128834
 21
234.512741
 31
0.0
  0
LINE
  5
BF
330
1F
100
AcDbEntity
  8
1
  6
Continuous
 62
    40
370
    18
100
AcDbLine
 10
247.128834
 20
234.429564
 30
0.0
 11
248.128834
 21
234.429564
 31
0.0
  0
LINE
  5
C0
330
1F
100
AcDbEntity
  8
1
  6
Continuous
 62
    40
370
    13
100
AcDbLine
 10
244.680114
 20
195.307363
 30
0.0
 11
232.441496
 21
195.307363
 31
0.0
  0
LINE
  5
C1
330
1F
100
AcDbEntity
  8
1
  6
Continuous
 62
    40
370
    13
100
AcDbLine
 10
263.577554
 20
195.307363
 30
0.0
 11
275.816172
 21
195.307363
 31
0.0
  0
LINE
  5
C2
330
1F
100
AcDbEntity
  8
1
  6
Continuous
 62
    40
370
    18
100
AcDbLine
 10
248.128834
 20
238.481456
 30
0.0
 11
248.128834
 21
200.123188
 31
0.0
  0
LINE
  5
C3
330
1F
100
AcDbEntity
  8
1
  6
Continuous
 62
    40
370
    18
100
AcDbLine
 10
260.128834
 20
238.481456
 30
0.0
 11
260.128834
 21
200.123188
 31
0.0
  0
LINE
  5
C4
330
1F
100
AcDbEntity
  8
1
  6
Continuous
 62
    40
370
    13
100
AcDbLine
 10
259.273333
 20
198.51052
 30
0.0
 11
248.984335
 21
198.51052
 31
0.0
  0
LINE
  5
C5
330
1F
100
AcDbEntity
  8
1
  6
Continuous
 62
    40
370
    13
100
AcDbLine
 10
259.147845
 20
239.6613
 30
0.0
 11
259.147845
 21
199.552846
 31
0.0
  0
LINE
  5
C6
330
1F
100
AcDbEntity
  8
1
  6
Continuous
 62
    40
370
    13
100
AcDbLine
 10
249.109823
 20
239.6613
 30
0.0
 11
249.109823
 21
199.552846
 31
0.0
  0
LINE
  5
C7
330
1F
100
AcDbEntity
  8
1
  6
Continuous
 62
    40
370
    18
100
AcDbLine
 10
123.614456
 20
60.957589
 30
0.0
 11
123.614456
 21
59.957589
 31
0.0
  0
LINE
  5
C8
330
1F
100
AcDbEntity
  8
1
  6
Continuous
 62
    40
370
    18
100
AcDbLine
 10
116.032918
 20
72.957589
 30
0.0
 11
116.032918
 21
73.957589
 31
0.0
  0
LINE
  5
C9
330
1F
100
AcDbEntity
  8
1
  6
Continuous
 62
    40
370
    18
100
AcDbLine
 10
121.45915
 20
60.957589
 30
0.0
 11
121.45915
 21
59.957589
 31
0.0
  0
LINE
  5
CA
330
1F
100
AcDbEntity
  8
1
  6
Continuous
 62
    40
370
    18
100
AcDbLine
 10
118.188224
 20
72.957589
 30
0.0
 11
118.188224
 21
73.957589
 31
0.0
  0
LINE
  5
CB
330
1F
100
AcDbEntity
  8
1
  6
Continuous
 62
    40
370
    18
100
AcDbLine
 10
123.500653
 20
59.957589
 30
0.0
 11
123.500653
 21
60.957589
 31
0.0
  0
LINE
  5
CC
330
1F
100
AcDbEntity
  8
1
  6
Continuous
 62
    40
370
    18
100
AcDbLine
 10
116.146721
 20
73.957589
 30
0.0
 11
116.146721
 21
72.957589
 31
0.0
  0
LINE
  5
CD
330
1F
100
AcDbEntity
  8
1
  6
Continuous
 62
    40
370
    18
100
AcDbLine
 10
123.860208
 20
73.957589
 30
0.0
 11
123.860208
 21
72.957589
 31
0.0
  0
LINE
  5
CE
330
1F
100
AcDbEntity
  8
1
  6
Continuous
 62
    40
370
    18
100
AcDbLine
 10
115.787166
 20
59.957589
 30
0.0
 11
115.787166
 21
60.957589
 31
0.0
  0
LINE
  5
CF
330
1F
100
AcDbEntity
  8
1
  6
Continuous
 62
    40
370
    18
100
AcDbLine
 10
115.811387
 20
72.957589
 30
0.0
 11
115.811387
 21
73.957589
 31
0.0
  0
LINE
  5
D0
330
1F
100
AcDbEntity
  8
1
  6
Continuous
 62
    40
370
    18
100
AcDbLine
 10
123.835987
 20
60.957589
 30
0.0
 11
123.835987
 21
59.957589
 31
0.0
  0
LINE
  5
D1
330
1F
100
AcDbEntity
  8
1
  6
Continuous
 62
    40
370
    18
100
AcDbLine
 10
116.061925
 20
60.957589
 30
0.0
 11
116.061925
 21
59.957589
 31
0.0
  0
LINE
  5
D2
330
1F
100
AcDbEntity
  8
1
  6
Continuous
 62
    40
370
    18
100
AcDbLine
 10
123.585449
 20
72.957589
 30
0.0
 11
123.585449
 21
73.957589
 31
0.0
  0
LINE
  5
D3
330
1F
100
AcDbEntity
  8
1
  6
Continuous
 62
    40
370
    18
100
AcDbLine
 10
127.323687
 20
59.957589
 30
0.0
 11
127.323687
 21
60.957589
 31
0.0
  0
LINE
  5
D4
330
1F
100
AcDbEntity
  8
1
  6
Continuous
 62
    40
370
    18
100
AcDbLine
 10
126.423687
 20
60.957589
 30
0.0
 11
126.423687
 21
59.957589
 31
0.0
  0
LINE
  5
D5
330
1F
100
AcDbEntity
  8
1
  6
Continuous
 62
    40
370
    18
100
AcDbLine
 10
112.323687
 20
73.957589
 30
0.0
 11
112.323687
 21
72.957589
 31
0.0
  0
LINE
  5
D6
330
1F
100
AcDbEntity
  8
1
  6
Continuous
 62
    40
370
    18
100
AcDbLine
 10
113.223687
 20
72.957589
 30
0.0
 11
113.223687
 21
73.957589
 31
0.0
  0
LINE
  5
D7
330
1F
100
AcDbEntity
  8
1
  6
Continuous
 62
    40
370
    18
100
AcDbLine
 10
113.447787
 20
73.957589
 30
0.0
 11
113.447787
 21
72.957589
 31
0.0
  0
LINE
  5
D8
330
1F
100
AcDbEntity
  8
1
  6
Continuous
 62
    40
370
    18
100
AcDbLine
 10
114.347787
 20
72.957589
 30
0.0
 11
114.347787
 21
73.957589
 31
0.0
  0
LINE
  5
D9
330
1F
100
AcDbEntity
  8
1
  6
Continuous
 62
    40
370
    18
100
AcDbLine
 10
126.199587
 20
59.957589
 30
0.0
 11
126.199587
 21
60.957589
 31
0.0
  0
LINE
  5
DA
330
1F
100
AcDbEntity
  8
1
  6
Continuous
 62
    40
370
    18
100
AcDbLine
 10
125.299587
 20
60.957589
 30
0.0
 11
125.299587
 21
59.957589
 31
0.0
  0
LINE
  5
DB
330
1F
100
AcDbEntity
  8
1
  6
Continuous
 62
    40
370
    18
100
AcDbLine
 10
114.586701
 20
73.957589
 30
0.0
 11
114.586701
 21
72.957589
 31
0.0
  0
LINE
  5
DC
330
1F
100
AcDbEntity
  8
1
  6
Continuous
 62
    40
370
    18
100
AcDbLine
 10
115.486701
 20
72.957589
 30
0.0
 11
115.486701
 21
73.957589
 31
0.0
  0
LINE
  5
DD
330
1F
100
AcDbEntity
  8
1
  6
Continuous
 62
    40
370
    18
100
AcDbLine
 10
125.060673
 20
59.957589
 30
0.0
 11
125.060673
 21
60.957589
 31
0.0
  0
LINE
  5
DE
330
1F
100
AcDbEntity
  8
1
  6
Continuous
 62
    40
370
    18
100
AcDbLine
 10
124.160673
 20
60.957589
 30
0.0
 11
124.160673
 21
59.957589
 31
0.0
  0
LINE
  5
DF
330
1F
100
AcDbEntity
  8
1
  6
Continuous
 62
    40
370
    13
100
AcDbLine
 10
129.094993
 20
75.957589
 30
0.0
 11
138.417461
 21
75.957589
 31
0.0
  0
LINE
  5
E0
330
1F
100
AcDbEntity
  8
1
  6
Continuous
 62
    40
370
    13
100
AcDbLine
 10
101.229913
 20
75.957589
 30
0.0
 11
110.552381
 21
75.957589
 31
0.0
  0
LINE
  5
E1
330
1F
100
AcDbEntity
  8
1
  6
Continuous
 62
    40
370
    13
100
AcDbLine
 10
101.229913
 20
57.957589
 30
0.0
 11
100.14979
 21
57.434774
 31
0.0
  0
LINE
  5
E2
330
1F
100
AcDbEntity
  8
1
  6
Continuous
 62
    40
370
    13
100
AcDbLine
 10
138.417461
 20
75.957589
 30
0.0
 11
139.497584
 21
76.480404
 31
0.0
  0
LINE
  5
E3
330
1F
100
AcDbEntity
  8
1
  6
Continuous
 62
    40
370
    13
100
AcDbLine
 10
110.552381
 20
57.957589
 30
0.0
 11
101.229913
 21
57.957589
 31
0.0
  0
LINE
  5
E4
330
1F
100
AcDbEntity
  8
1
  6
Continuous
 62
    40
370
    13
100
AcDbLine
 10
101.229913
 20
75.957589
 30
0.0
 11
100.149793
 21
76.480403
 31
0.0
  0
LINE
  5
E5
330
1F
100
AcDbEntity
  8
1
  6
Continuous
 62
    40
370
    13
100
AcDbLine
 10
138.417461
 20
57.957589
 30
0.0
 11
129.094993
 21
57.957589
 31
0.0
  0
LINE
  5
E6
330
1F
100
AcDbEntity
  8
1
  6
Continuous
 62
    40
370
    13
100
AcDbLine
 10
138.417461
 20
57.957589
 30
0.0
 11
139.49758
 21
57.434776
 31
0.0
  0
LINE
  5
E7
330
1F
100
AcDbEntity
  8
1
  6
Continuous
 62
    40
370
    18
100
AcDbLine
 10
127.323687
 20
59.957589
 30
0.0
 11
126.423687
 21
59.957589
 31
0.0
  0
LINE
  5
E8
330
1F
100
AcDbEntity
  8
1
  6
Continuous
 62
    40
370
    18
100
AcDbLine
 10
112.323687
 20
73.957589
 30
0.0
 11
113.223687
 21
73.957589
 31
0.0
  0
LINE
  5
E9
330
1F
100
AcDbEntity
  8
1
  6
Continuous
 62
    40
370
    18
100
AcDbLine
 10
113.447787
 20
73.957589
 30
0.0
 11
114.347787
 21
73.957589
 31
0.0
  0
LINE
  5
EA
330
1F
100
AcDbEntity
  8
1
  6
Continuous
 62
    40
370
    18
100
AcDbLine
 10
126.199587
 20
59.957589
 30
0.0
 11
125.299587
 21
59.957589
 31
0.0
  0
LINE
  5
EB
330
1F
100
AcDbEntity
  8
1
  6
Continuous
 62
    40
370
    18
100
AcDbLine
 10
114.586701
 20
73.957589
 30
0.0
 11
115.486701
 21
73.957589
 31
0.0
  0
LINE
  5
EC
330
1F
100
AcDbEntity
  8
1
  6
Continuous
 62
    40
370
    18
100
AcDbLine
 10
125.060673
 20
59.957589
 30
0.0
 11
124.160673
 21
59.957589
 31
0.0
  0
LINE
  5
ED
330
1F
100
AcDbEntity
  8
1
  6
Continuous
 62
    40
370
    18
100
AcDbLine
 10
123.644328
 20
59.957589
 30
0.0
 11
123.644328
 21
60.957589
 31
0.0
  0
LINE
  5
EE
330
1F
100
AcDbEntity
  8
1
  6
Continuous
 62
    40
370
    18
100
AcDbLine
 10
116.003046
 20
73.957589
 30
0.0
 11
116.003046
 21
72.957589
 31
0.0
  0
LINE
  5
EF
330
1F
100
AcDbEntity
  8
1
  6
Continuous
 62
    40
370
    18
100
AcDbLine
 10
113.618101
 20
59.957589
 30
0.0
 11
113.618101
 21
60.957589
 31
0.0
  0
LINE
  5
F0
330
1F
100
AcDbEntity
  8
1
  6
Continuous
 62
    40
370
    18
100
AcDbLine
 10
126.029273
 20
73.957589
 30
0.0
 11
126.029273
 21
72.957589
 31
0.0
  0
LINE
  5
F1
330
1F
100
AcDbEntity
  8
1
  6
Continuous
 62
    40
370
    18
100
AcDbLine
 10
125.698018
 20
73.957589
 30
0.0
 11
125.698018
 21
72.957589
 31
0.0
  0
LINE
  5
F2
330
1F
100
AcDbEntity
  8
1
  6
Continuous
 62
    40
370
    18
100
AcDbLine
 10
113.949356
 20
59.957589
 30
0.0
 11
113.949356
 21
60.957589
 31
0.0
  0
LINE
  5
F3
330
1F
100
AcDbEntity
  8
1
  6
Continuous
 62
    40
370
    18
100
AcDbLine
 10
121.5096
 20
73.957589
 30
0.0
 11
121.50651
 21
73.957589
 31
0.0
  0
LINE
  5
F4
330
1F
100
AcDbEntity
  8
1
  6
Continuous
 62
    40
370
    18
100
AcDbLine
 10
118.137774
 20
59.957589
 30
0.0
 11
118.140864
 21
59.957589
 31
0.0
  0
LINE
  5
F5
330
1F
100
AcDbEntity
  8
1
  6
Continuous
 62
    40
370
    18
100
AcDbLine
 10
125.630162
 20
73.957589
 30
0.0
 11
125.630162
 21
72.957589
 31
0.0
  0
LINE
  5
F6
330
1F
100
AcDbEntity
  8
1
  6
Continuous
 62
    40
370
    18
100
AcDbLine
 10
114.017212
 20
59.957589
 30
0.0
 11
114.017212
 21
60.957589
 31
0.0
  0
LINE
  5
F7
330
1F
100
AcDbEntity
  8
1
  6
Continuous
 62
    40
370
    18
100
AcDbLine
 10
117.991007
 20
73.957589
 30
0.0
 11
117.991007
 21
72.957589
 31
0.0
  0
LINE
  5
F8
330
1F
100
AcDbEntity
  8
1
  6
Continuous
 62
    40
370
    18
100
AcDbLine
 10
121.656367
 20
59.957589
 30
0.0
 11
121.656367
 21
60.957589
 31
0.0
  0
LINE
  5
F9
330
1F
100
AcDbEntity
  8
1
  6
Continuous
 62
    40
370
    18
100
AcDbLine
 10
117.779316
 20
73.957589
 30
0.0
 11
117.779316
 21
72.957589
 31
0.0
  0
LINE
  5
FA
330
1F
100
AcDbEntity
  8
1
  6
Continuous
 62
    40
370
    18
100
AcDbLine
 10
116.147785
 20
73.957589
 30
0.0
 11
116.147785
 21
72.957589
 31
0.0
  0
LINE
  5
FB
330
1F
100
AcDbEntity
  8
1
  6
Continuous
 62
    40
370
    18
100
AcDbLine
 10
121.868058
 20
59.957589
 30
0.0
 11
121.868058
 21
60.957589
 31
0.0
  0
LINE
  5
FC
330
1F
100
AcDbEntity
  8
1
  6
Continuous
 62
    40
370
    18
100
AcDbLine
 10
123.499589
 20
59.957589
 30
0.0
 11
123.499589
 21
60.957589
 31
0.0
  0
LINE
  5
FD
330
1F
100
AcDbEntity
  8
1
  6
Continuous
 62
    40
370
    18
100
AcDbLine
 10
118.140864
 20
59.957589
 30
0.0
 11
118.140864
 21
60.957589
 31
0.0
  0
LINE
  5
FE
330
1F
100
AcDbEntity
  8
1
  6
Continuous
 62
    40
370
    18
100
AcDbLine
 10
118.107056
 20
59.957589
 30
0.0
 11
118.107056
 21
60.957589
 31
0.0
  0
LINE
  5
FF
330
1F
100
AcDbEntity
  8
1
  6
Continuous
 62
    40
370
    18
100
AcDbLine
 10
121.50651
 20
73.957589
 30
0.0
 11
121.50651
 21
72.957589
 31
0.0
  0
LINE
  5
100
330
1F
100
AcDbEntity
  8
1
  6
Continuous
 62
    40
370
    18
100
AcDbLine
 10
121.540318
 20
73.957589
 30
0.0
 11
121.540318
 21
72.957589
 31
0.0
  0
LINE
  5
101
330
1F
100
AcDbEntity
  8
1
  6
Continuous
 62
    40
370
    18
100
AcDbLine
 10
118.315281
 20
73.957589
 30
0.0
 11
118.315281
 21
72.957589
 31
0.0
  0
LINE
  5
102
330
1F
100
AcDbEntity
  8
1
  6
Continuous
 62
    40
370
    18
100
AcDbLine
 10
118.679958
 20
73.957589
 30
0.0
 11
118.679958
 21
72.957589
 31
0.0
  0
LINE
  5
103
330
1F
100
AcDbEntity
  8
1
  6
Continuous
 62
    40
370
    18
100
AcDbLine
 10
121.332093
 20
59.957589
 30
0.0
 11
121.332093
 21
60.957589
 31
0.0
  0
LINE
  5
104
330
1F
100
AcDbEntity
  8
1
  6
Continuous
 62
    40
370
    18
100
AcDbLine
 10
120.967416
 20
59.957589
 30
0.0
 11
120.967416
 21
60.957589
 31
0.0
  0
LINE
  5
105
330
1F
100
AcDbEntity
  8
1
  6
Continuous
 62
    40
370
    18
100
AcDbLine
 10
120.462021
 20
59.957589
 30
0.0
 11
120.462021
 21
60.957589
 31
0.0
  0
LINE
  5
106
330
1F
100
AcDbEntity
  8
1
  6
Continuous
 62
    40
370
    18
100
AcDbLine
 10
119.185353
 20
73.957589
 30
0.0
 11
119.185353
 21
72.957589
 31
0.0
  0
LINE
  5
107
330
1F
100
AcDbEntity
  8
1
  6
Continuous
 62
    40
370
    18
100
AcDbLine
 10
119.627183
 20
73.957589
 30
0.0
 11
119.627183
 21
72.957589
 31
0.0
  0
LINE
  5
108
330
1F
100
AcDbEntity
  8
1
  6
Continuous
 62
    40
370
    18
100
AcDbLine
 10
120.364465
 20
73.957589
 30
0.0
 11
120.364465
 21
72.957589
 31
0.0
  0
LINE
  5
109
330
1F
100
AcDbEntity
  8
1
  6
Continuous
 62
    40
370
    18
100
AcDbLine
 10
120.012164
 20
73.957589
 30
0.0
 11
120.012164
 21
72.957589
 31
0.0
  0
LINE
  5
10A
330
1F
100
AcDbEntity
  8
1
  6
Continuous
 62
    40
370
    18
100
AcDbLine
 10
120.020191
 20
59.957589
 30
0.0
 11
120.020191
 21
60.957589
 31
0.0
  0
LINE
  5
10B
330
1F
100
AcDbEntity
  8
1
  6
Continuous
 62
    40
370
    18
100
AcDbLine
 10
119.282909
 20
59.957589
 30
0.0
 11
119.282909
 21
60.957589
 31
0.0
  0
LINE
  5
10C
330
1F
100
AcDbEntity
  8
1
  6
Continuous
 62
    40
370
    18
100
AcDbLine
 10
119.63521
 20
59.957589
 30
0.0
 11
119.63521
 21
60.957589
 31
0.0
  0
LINE
  5
10D
330
1F
100
AcDbEntity
  8
1
  6
Continuous
 62
    40
370
    18
100
AcDbLine
 10
119.168856
 20
59.957589
 30
0.0
 11
119.168856
 21
60.957589
 31
0.0
  0
LINE
  5
10E
330
1F
100
AcDbEntity
  8
1
  6
Continuous
 62
    40
370
    18
100
AcDbLine
 10
120.478518
 20
73.957589
 30
0.0
 11
120.478518
 21
72.957589
 31
0.0
  0
LINE
  5
10F
330
1F
100
AcDbEntity
  8
1
  6
Continuous
 62
    40
370
    18
100
AcDbLine
 10
118.298319
 20
59.957589
 30
0.0
 11
118.298319
 21
60.957589
 31
0.0
  0
LINE
  5
110
330
1F
100
AcDbEntity
  8
1
  6
Continuous
 62
    40
370
    18
100
AcDbLine
 10
118.685643
 20
59.957589
 30
0.0
 11
118.685643
 21
60.957589
 31
0.0
  0
LINE
  5
111
330
1F
100
AcDbEntity
  8
1
  6
Continuous
 62
    40
370
    18
100
AcDbLine
 10
121.349055
 20
73.957589
 30
0.0
 11
121.349055
 21
72.957589
 31
0.0
  0
LINE
  5
112
330
1F
100
AcDbEntity
  8
1
  6
Continuous
 62
    40
370
    18
100
AcDbLine
 10
120.961731
 20
73.957589
 30
0.0
 11
120.961731
 21
72.957589
 31
0.0
  0
LINE
  5
113
330
1F
100
AcDbEntity
  8
1
  6
Continuous
 62
    40
370
    18
100
AcDbLine
 10
93.965419
 20
60.957589
 30
0.0
 11
145.681955
 21
60.957589
 31
0.0
  0
LINE
  5
114
330
1F
100
AcDbEntity
  8
1
  6
Continuous
 62
    40
370
    18
100
AcDbLine
 10
145.681955
 20
72.957589
 30
0.0
 11
93.965419
 21
72.957589
 31
0.0
  0
LINE
  5
115
330
1F
100
AcDbEntity
  8
1
  6
Continuous
 62
    40
370
    13
100
AcDbLine
 10
146.861799
 20
61.938578
 30
0.0
 11
92.785575
 21
61.938578
 31
0.0
  0
LINE
  5
116
330
1F
100
AcDbEntity
  8
1
  6
Continuous
 62
    40
370
    13
100
AcDbLine
 10
92.785575
 20
71.976601
 30
0.0
 11
146.861799
 21
71.976601
 31
0.0
  0
ARC
  5
117
330
1F
100
AcDbEntity
  8
1
  6
Continuous
 62
    40
370
    18
100
AcDbCircle
 10
119.823687
 20
212.623188
 30
0.0
 40
27.49999999999999
100
AcDbArc
 50
0.0
 51
210.87641
  0
ARC
  5
118
330
1F
100
AcDbEntity
  8
1
  6
Continuous
 62
    40
370
    18
100
AcDbCircle
 10
119.823687
 20
212.623188
 30
0.0
 40
27.49999999999999
100
AcDbArc
 50
329.12359
 51
0.0
  0
CIRCLE
  5
119
330
1F
100
AcDbEntity
  8
1
  6
Continuous
 62
    40
370
    18
100
AcDbCircle
 10
124.610673
 20
236.028313
 30
0.0
 40
0.4500000000000002
  0
CIRCLE
  5
11A
330
1F
100
AcDbEntity
  8
1
  6
Continuous
 62
    40
370
    18
100
AcDbCircle
 10
125.749587
 20
235.760408
 30
0.0
 40
0.4500000000000002
  0
CIRCLE
  5
11B
330
1F
100
AcDbEntity
  8
1
  6
Continuous
 62
    40
370
    18
100
AcDbCircle
 10
126.873687
 20
235.435909
 30
0.0
 40
0.4500000000000002
  0
ARC
  5
11C
330
1F
100
AcDbEntity
  8
1
  6
Continuous
 62
    40
370
    18
100
AcDbCircle
 10
119.823687
 20
213.123188
 30
0.0
 40
14.99999999999999
100
AcDbArc
 50
329.12359
 51
210.87641
  0
ARC
  5
11D
330
1F
100
AcDbEntity
  8
1
  6
Continuous
 62
    40
370
    13
100
AcDbCircle
 10
119.823687
 20
212.623188
 30
0.0
 40
27.03811244332651
100
AcDbArc
 50
331.092015
 51
208.907985
  0
ARC
  5
11E
330
1F
100
AcDbEntity
  8
1
  6
Continuous
 62
    40
370
    13
100
AcDbCircle
 10
119.823687
 20
213.123188
 30
0.0
 40
17.39999999999999
100
AcDbArc
 50
329.12359
 51
210.87641
  0
ARC
  5
11F
330
1F
100
AcDbEntity
  8
1
  6
Continuous
 62
    40
370
    13
100
AcDbCircle
 10
119.823687
 20
212.623188
 30
0.0
 40
25.85826753670863
100
AcDbArc
 50
331.092015
 51
208.907985
  0
ARC
  5
120
330
1F
100
AcDbEntity
  8
1
  6
Continuous
 62
    40
370
    18
100
AcDbCircle
 10
233.471428
 20
195.923188
 30
0.0
 40
1.2
100
AcDbArc
 50
90.0
 51
210.87641
  0
ARC
  5
121
330
1F
100
AcDbEntity
  8
1
  6
Continuous
 62
    40
370
    18
100
AcDbCircle
 10
274.78624
 20
195.923188
 30
0.0
 40
1.2
100
AcDbArc
 50
329.12359
 51
90.0
  0
ARC
  5
122
330
1F
100
AcDbEntity
  8
1
  6
Continuous
 62
    40
370
    18
100
AcDbCircle
 10
249.328834
 20
238.481456
 30
0.0
 40
1.2
100
AcDbArc
 50
100.515966
 51
180.0
  0
ARC
  5
123
330
1F
100
AcDbEntity
  8
1
  6
Continuous
 62
    40
370
    18
100
AcDbCircle
 10
258.928834
 20
238.481456
 30
0.0
 40
1.2
100
AcDbArc
 50
0.0
 51
79.484034
  0
ARC
  5
124
330
1F
100
AcDbEntity
  8
1
  6
Continuous
 62
    40
370
    18
100
AcDbCircle
 10
254.128834
 20
212.623188
 30
0.0
 40
27.49999999999999
100
AcDbArc
 50
79.484034
 51
100.515966
  0
ARC
  5
125
330
1F
100
AcDbEntity
  8
1
  6
Continuous
 62
    40
370
    18
100
AcDbCircle
 10
119.823687
 20
66.957589
 30
0.0
 40
21.857406330606
100
AcDbArc
 50
270.0
 51
334.171487
  0
ARC
  5
126
330
1F
100
AcDbEntity
  8
1
  6
Continuous
 62
    40
370
    18
100
AcDbCircle
 10
119.823687
 20
66.957589
 30
0.0
 40
21.857406330606
100
AcDbArc
 50
205.828513
 51
270.0
  0
ARC
  5
127
330
1F
100
AcDbEntity
  8
1
  6
Continuous
 62
    40
370
    18
100
AcDbCircle
 10
119.823687
 20
66.957589
 30
0.0
 40
21.857406330606
100
AcDbArc
 50
25.828513
 51
154.171487
  0
ARC
  5
128
330
1F
100
AcDbEntity
  8
1
  6
Continuous
 62
    40
370
    18
100
AcDbCircle
 10
93.965419
 20
71.757589
 30
0.0
 40
1.2
100
AcDbArc
 50
90.0
 51
169.484034
  0
ARC
  5
129
330
1F
100
AcDbEntity
  8
1
  6
Continuous
 62
    40
370
    18
100
AcDbCircle
 10
145.681955
 20
71.757589
 30
0.0
 40
1.2
100
AcDbArc
 50
10.515966
 51
90.0
  0
ARC
  5
12A
330
1F
100
AcDbEntity
  8
1
  6
Continuous
 62
    40
370
    18
100
AcDbCircle
 10
145.681955
 20
62.157589
 30
0.0
 40
1.2
100
AcDbArc
 50
270.0
 51
349.484034
  0
ARC
  5
12B
330
1F
100
AcDbEntity
  8
1
  6
Continuous
 62
    40
370
    18
100
AcDbCircle
 10
93.965419
 20
62.157589
 30
0.0
 40
1.2
100
AcDbArc
 50
190.515966
 51
270.0
  0
ARC
  5
12C
330
1F
100
AcDbEntity
  8
1
  6
Continuous
 62
    40
370
    18
100
AcDbCircle
 10
119.823687
 20
66.957589
 30
0.0
 40
27.49999999999999
100
AcDbArc
 50
349.484034
 51
10.515966
  0
ARC
  5
12D
330
1F
100
AcDbEntity
  8
1
  6
Continuous
 62
    40
370
    18
100
AcDbCircle
 10
119.823687
 20
66.957589
 30
0.0
 40
27.49999999999999
100
AcDbArc
 50
169.484034
 51
190.515966
  0
ARC
  5
12E
330
1F
100
AcDbEntity
  8
1
  6
Continuous
 62
    40
370
    18
100
AcDbCircle
 10
119.823687
 20
66.957589
 30
0.0
 40
10.31495457622364
100
AcDbArc
 50
39.190117
 51
140.809883
  0
ARC
  5
12F
330
1F
100
AcDbEntity
  8
1
  6
Continuous
 62
    40
370
    13
100
AcDbCircle
 10
119.823687
 20
66.957589
 30
0.0
 40
20.657406330606
100
AcDbArc
 50
25.828513
 51
154.171487
  0
ARC
  5
130
330
1F
100
AcDbEntity
  8
1
  6
Continuous
 62
    40
370
    18
100
AcDbCircle
 10
119.823687
 20
66.957589
 30
0.0
 40
10.31495457622364
100
AcDbArc
 50
219.190117
 51
320.809883
  0
ARC
  5
131
330
1F
100
AcDbEntity
  8
1
  6
Continuous
 62
    40
370
    18
100
AcDbCircle
 10
119.823687
 20
66.957589
 30
0.0
 40
8.5
100
AcDbArc
 50
55.681873
 51
124.565623
  0
ARC
  5
132
330
1F
100
AcDbEntity
  8
1
  6
Continuous
 62
    40
370
    18
100
AcDbCircle
 10
119.823687
 20
66.957589
 30
0.0
 40
8.5
100
AcDbArc
 50
235.625625
 51
304.559997
  0
ARC
  5
133
330
1F
100
AcDbEntity
  8
1
  6
Continuous
 62
    40
370
    13
100
AcDbCircle
 10
119.823687
 20
66.957589
 30
0.0
 40
20.657406330606
100
AcDbArc
 50
205.828513
 51
334.171487
  0
ELLIPSE
  5
134
330
1F
100
AcDbEntity
  8
1
  6
Continuous
 62
    40
370
    13
100
AcDbEllipse
 10
141.853638
 20
199.126345
 30
0.0
 11
-0.9982032609927095
 21
0.6660257125243143
 31
0.0
210
0.0
220
0.0
230
1.0
 40
0.199166
 41
3.333668711207928
 42
4.844503684052878
  0
ELLIPSE
  5
135
330
1F
100
AcDbEntity
  8
1
  6
Continuous
 62
    40
370
    13
100
AcDbEllipse
 10
97.793736
 20
199.126345
 30
0.0
 11
-0.9982032609927192
 21
-0.6660257125242999
 31
0.0
210
0.0
220
0.0
230
1.0
 40
0.199166
 41
4.580274276716521
 42
6.091109249561439
  0
ELLIPSE
  5
136
330
1F
100
AcDbEntity
  8
1
  6
Continuous
 62
    40
370
    13
100
AcDbEllipse
 10
138.417461
 20
195.923188
 30
0.0
 11
0.0
 21
1.2
 31
0.0
210
0.0
220
0.0
230
1.0
 40
0.900102
 41
4.173493956484364
 42
6.283185307179563
  0
ELLIPSE
  5
137
330
1F
100
AcDbEntity
  8
1
  6
Continuous
 62
    40
370
    13
100
AcDbEllipse
 10
101.229913
 20
195.923188
 30
0.0
 11
0.0
 21
1.2
 31
0.0
210
0.0
220
0.0
230
1.0
 40
0.900102
 41
0.0
 42
2.10969135069517
  0
ELLIPSE
  5
138
330
1F
100
AcDbEntity
  8
1
  6
Continuous
 62
    40
370
    13
100
AcDbEllipse
 10
249.208822
 20
199.126345
 30
0.0
 11
-1.165710955620402
 21
0.2848121625678415
 31
0.0
210
0.0
220
0.0
230
1.0
 40
0.543902
 41
0.0
 42
1.510834972844929
  0
ELLIPSE
  5
139
330
1F
100
AcDbEntity
  8
1
  6
Continuous
 62
    40
370
    13
100
AcDbEllipse
 10
259.048846
 20
199.126345
 30
0.0
 11
-1.165710955620417
 21
-0.2848121625677785
 31
0.0
210
0.0
220
0.0
230
1.0
 40
0.543902
 41
1.630757680744895
 42
3.141592653589815
  0
ELLIPSE
  5
13A
330
1F
100
AcDbEntity
  8
1
  6
Continuous
 62
    40
370
    13
100
AcDbEllipse
 10
249.328834
 20
200.123188
 30
0.0
 11
1.2
 21
0.0
 31
0.0
210
0.0
220
0.0
230
1.0
 40
0.483404
 41
3.141592653589799
 42
4.528850755559004
  0
ELLIPSE
  5
13B
330
1F
100
AcDbEntity
  8
1
  6
Continuous
 62
    40
370
    13
100
AcDbEllipse
 10
258.928834
 20
200.123188
 30
0.0
 11
-1.2
 21
0.0
 31
0.0
210
0.0
220
0.0
230
1.0
 40
0.483404
 41
1.75433455162058
 42
3.141592653589787
  0
ELLIPSE
  5
13C
330
1F
100
AcDbEntity
  8
1
  6
Continuous
 62
    40
370
    13
100
AcDbEllipse
 10
263.128834
 20
195.923188
 30
0.0
 11
0.0
 21
1.2
 31
0.0
210
0.0
220
0.0
230
1.0
 40
0.435679
 41
4.173493956484418
 42
6.283185307179505
  0
ELLIPSE
  5
13D
330
1F
100
AcDbEntity
  8
1
  6
Continuous
 62
    40
370
    13
100
AcDbEllipse
 10
245.128834
 20
195.923188
 30
0.0
 11
0.0
 21
1.2
 31
0.0
210
0.0
220
0.0
230
1.0
 40
0.435679
 41
0.0
 42
2.109691350695223
  0
ELLIPSE
  5
13E
330
1F
100
AcDbEntity
  8
1
  6
Continuous
 62
    40
370
    13
100
AcDbEllipse
 10
97.793736
 20
62.037578
 30
0.0
 11
-0.4126229971136762
 21
-1.126828408522313
 31
0.0
210
0.0
220
0.0
230
1.0
 40
0.815171
 41
0.002442021621313
 42
0.4221947245052649
  0
ELLIPSE
  5
13F
330
1F
100
AcDbEntity
  8
1
  6
Continuous
 62
    40
370
    13
100
AcDbEllipse
 10
141.853638
 20
71.877601
 30
0.0
 11
0.4126229971136789
 21
1.126828408522311
 31
0.0
210
0.0
220
0.0
230
1.0
 40
0.815171
 41
0.0024420216213166
 42
0.4221947245052649
  0
ELLIPSE
  5
140
330
1F
100
AcDbEntity
  8
1
  6
Continuous
 62
    40
370
    13
100
AcDbEllipse
 10
141.853638
 20
62.037578
 30
0.0
 11
-0.4126229971137523
 21
1.126828408522284
 31
0.0
210
0.0
220
0.0
230
1.0
 40
0.815171
 41
2.719397929084457
 42
3.143611862949589
  0
ELLIPSE
  5
141
330
1F
100
AcDbEntity
  8
1
  6
Continuous
 62
    40
370
    13
100
AcDbEllipse
 10
97.793736
 20
71.877601
 30
0.0
 11
0.4126229971137498
 21
-1.126828408522285
 31
0.0
210
0.0
220
0.0
230
1.0
 40
0.815171
 41
2.719397929084458
 42
3.14361186294959
  0
ELLIPSE
  5
142
330
1F
100
AcDbEntity
  8
1
  6
Continuous
 62
    40
370
    13
100
AcDbEllipse
 10
132.323808
 20
57.957589
 30
0.0
 11
3.228814468119118
 21
0.0
 31
0.0
210
0.0
220
0.0
230
1.0
 40
0.929134
 41
1.570796326794897
 42
3.141592653589793
  0
ELLIPSE
  5
143
330
1F
100
AcDbEntity
  8
1
  6
Continuous
 62
    40
370
    13
100
AcDbEllipse
 10
107.323566
 20
75.957589
 30
0.0
 11
3.228814468119078
 21
0.0
 31
0.0
210
0.0
220
0.0
230
1.0
 40
0.929134
 41
4.71238898038469
 42
6.283185307179586
  0
ELLIPSE
  5
144
330
1F
100
AcDbEntity
  8
1
  6
Continuous
 62
    40
370
    13
100
AcDbEllipse
 10
107.323566
 20
57.957589
 30
0.0
 11
3.228814468119159
 21
0.0
 31
0.0
210
0.0
220
0.0
230
1.0
 40
0.929134
 41
0.0
 42
1.570796326794897
  0
ELLIPSE
  5
145
330
1F
100
AcDbEntity
  8
1
  6
Continuous
 62
    40
370
    13
100
AcDbEllipse
 10
132.323808
 20
75.957589
 30
0.0
 11
3.228814468119164
 21
0.0
 31
0.0
210
0.0
220
0.0
230
1.0
 40
0.929134
 41
3.141592653589793
 42
4.71238898038469
  0
SPLINE
  5
146
330
1F
100
AcDbEntity
  8
1
  6
Continuous
 62
    40
370
    13
100
AcDbSpline
210
0.0
220
0.0
230
1.0
 70
     8
 71
     3
 72
    10
 73
     6
 74
     0
 42
0.000000001
 43
0.0000000001
 40
0.0
 40
0.0
 40
0.0
 40
0.0
 40
0.5
 40
0.5
 40
1.0
 40
1.0
 40
1.0
 40
1.0
 10
96.7885674658187
 20
198.5105199397671
 30
0.0
 10
96.67675971060893
 20
198.6780913469304
 30
0.0
 10
96.56800691885385
 20
198.8486871034668
 30
0.0
 10
96.3566370473193
 20
199.1960473938138
 30
0.0
 10
96.25401803311503
 20
199.3728096361062
 30
0.0
 10
96.15459998070172
 20
199.5528458198868
 30
0.0
  0
SPLINE
  5
147
330
1F
100
AcDbEntity
  8
1
  6
Continuous
 62
    40
370
    13
100
AcDbSpline
210
0.0
220
0.0
230
1.0
 70
     8
 71
     3
 72
    10
 73
     6
 74
     0
 42
0.000000001
 43
0.0000000001
 40
0.0
 40
0.0
 40
0.0
 40
0.0
 40
0.5
 40
0.5
 40
1.0
 40
1.0
 40
1.0
 40
1.0
 10
143.4927739688781
 20
199.5528458198869
 30
0.0
 10
143.3933559164648
 20
199.3728096361062
 30
0.0
 10
143.2907369022605
 20
199.1960473938138
 30
0.0
 10
143.0793670307259
 20
198.8486871034667
 30
0.0
 10
142.9706142389708
 20
198.6780913469303
 30
0.0
 10
142.858806483761
 20
198.5105199397669
 30
0.0
  0
SPLINE
  5
148
330
1F
100
AcDbEntity
  8
1
  6
Continuous
 62
    40
370
    13
100
AcDbSpline
210
0.0
220
0.0
230
1.0
 70
     8
 71
     3
 72
    10
 73
     6
 74
     0
 42
0.000000001
 43
0.0000000001
 40
0.0
 40
0.0
 40
0.0
 40
0.0
 40
0.5
 40
0.5
 40
1.0
 40
1.0
 40
1.0
 40
1.0
 10
97.18743286771647
 20
200.1231880252101
 30
0.0
 10
97.28367360925017
 20
199.9987006034495
 30
0.0
 10
97.38243934404647
 20
199.8772912028705
 30
0.0
 10
97.58463241615922
 20
199.6400816288129
 30
0.0
 10
97.68806242582342
 20
199.5242849789228
 30
0.0
 10
97.79373631711927
 20
199.4111576187906
 30
0.0
  0
SPLINE
  5
149
330
1F
100
AcDbEntity
  8
1
  6
Continuous
 62
    40
370
    13
100
AcDbSpline
210
0.0
220
0.0
230
1.0
 70
     8
 71
     3
 72
    10
 73
     6
 74
     0
 42
0.000000001
 43
0.0000000001
 40
0.0
 40
0.0
 40
0.0
 40
0.0
 40
0.5
 40
0.5
 40
1.0
 40
1.0
 40
1.0
 40
1.0
 10
141.8536376324604
 20
199.4111576187905
 30
0.0
 10
141.9593115237563
 20
199.5242849789227
 30
0.0
 10
142.0627415334205
 20
199.6400816288128
 30
0.0
 10
142.2649346055333
 20
199.8772912028704
 30
0.0
 10
142.3637003403296
 20
199.9987006034495
 30
0.0
 10
142.4599410818633
 20
200.1231880252101
 30
0.0
  0
SPLINE
  5
14A
330
1F
100
AcDbEntity
  8
1
  6
Continuous
 62
    40
370
    18
100
AcDbSpline
210
0.0
220
0.0
230
1.0
 70
     8
 71
     3
 72
    26
 73
    22
 74
     0
 42
0.000000001
 43
0.0000000001
 40
0.0
 40
0.0
 40
0.0
 40
0.0
 40
0.0624999999999994
 40
0.0624999999999994
 40
0.1249999999999988
 40
0.1249999999999988
 40
0.1874999999999981
 40
0.1874999999999981
 40
0.2499999999999975
 40
0.2499999999999975
 40
0.3749999999999979
 40
0.3749999999999979
 40
0.4999999999999983
 40
0.4999999999999983
 40
0.6249999999999988
 40
0.6249999999999988
 40
0.7499999999999991
 40
0.7499999999999991
 40
0.8749999999999996
 40
0.8749999999999996
 40
1.0
 40
1.0
 40
1.0
 40
1.0
 10
110.2297728725482
 20
199.9393798504524
 30
0.0
 10
110.2579824471962
 20
199.8922010160526
 30
0.0
 10
110.2858440944619
 20
199.8417037767889
 30
0.0
 10
110.3413586807535
 20
199.736364509822
 30
0.0
 10
110.3690079754029
 20
199.6815034271529
 30
0.0
 10
110.4244282532939
 20
199.5688579951249
 30
0.0
 10
110.4521977179347
 20
199.5110654311777
 30
0.0
 10
110.508116753349
 20
199.3935557111652
 30
0.0
 10
110.5362656138056
 20
199.3338345172965
 30
0.0
 10
110.6216062059487
 20
199.1528932195906
 30
0.0
 10
110.6797014087581
 20
199.0299518020801
 30
0.0
 10
110.7997157882205
 20
198.783478544593
 30
0.0
 10
110.8616334901584
 20
198.6599239346185
 30
0.0
 10
110.9904058833542
 20
198.4145798452701
 30
0.0
 10
111.0572643682647
 20
198.2927859111984
 30
0.0
 10
111.196698957272
 20
198.0520997138079
 30
0.0
 10
111.2692933504898
 20
197.9331973685491
 30
0.0
 10
111.4204222069673
 20
197.6982377410806
 30
0.0
 10
111.4988321315547
 20
197.5824000651157
 30
0.0
 10
111.6606495170802
 20
197.3523833949135
 30
0.0
 10
111.7440695066167
 20
197.2382124638964
 30
0.0
 10
111.8290453765082
 20
197.1231880252022
 30
0.0
  0
SPLINE
  5
14B
330
1F
100
AcDbEntity
  8
1
  6
Continuous
 62
    40
370
    18
100
AcDbSpline
210
0.0
220
0.0
230
1.0
 70
     8
 71
     3
 72
    28
 73
    24
 74
     0
 42
0.000000001
 43
0.0000000001
 40
0.0
 40
0.0
 40
0.0
 40
0.0
 40
0.1249999999999992
 40
0.1249999999999992
 40
0.2499999999999983
 40
0.2499999999999983
 40
0.3749999999999975
 40
0.3749999999999975
 40
0.4999999999999967
 40
0.4999999999999967
 40
0.6249999999999958
 40
0.6249999999999958
 40
0.6874999999999966
 40
0.6874999999999966
 40
0.7499999999999972
 40
0.7499999999999972
 40
0.8124999999999979
 40
0.8124999999999979
 40
0.8749999999999986
 40
0.8749999999999986
 40
0.9374999999999993
 40
0.9374999999999993
 40
1.0
 40
1.0
 40
1.0
 40
1.0
 10
127.8183285730718
 20
197.1231880252025
 30
0.0
 10
127.903248418437
 20
197.2381366283717
 30
0.0
 10
127.9865639206485
 20
197.3521661573116
 30
0.0
 10
128.1480781027593
 20
197.5817300320263
 30
0.0
 10
128.2262901016828
 20
197.697256034567
 30
0.0
 10
128.3769531049382
 20
197.9313980658544
 30
0.0
 10
128.4494160044435
 20
198.0500049915696
 30
0.0
 10
128.5887860571993
 20
198.2904242497509
 30
0.0
 10
128.6557012462123
 20
198.4122320414043
 30
0.0
 10
128.7847241767761
 20
198.65792300271
 30
0.0
 10
128.8468353740232
 20
198.7818110860917
 30
0.0
 10
128.9372341405688
 20
198.9674295356529
 30
0.0
 10
128.9669132721312
 20
199.0292676982627
 30
0.0
 10
129.0254344900266
 20
199.152221838358
 30
0.0
 10
129.0542866949335
 20
199.2133597234567
 30
0.0
 10
129.1113589040079
 20
199.3343658823084
 30
0.0
 10
129.1395786134325
 20
199.3942362626013
 30
0.0
 10
129.1955953732129
 20
199.511941041225
 30
0.0
 10
129.2233918174426
 20
199.5697793257895
 30
0.0
 10
129.2788095850307
 20
199.682390300974
 30
0.0
 10
129.3064296214147
 20
199.7371707680771
 30
0.0
 10
129.3618066653216
 20
199.8422087527837
 30
0.0
 10
129.3895606380952
 20
199.8924838854659
 30
0.0
 10
129.4176010770325
 20
199.9393798504576
 30
0.0
  0
SPLINE
  5
14C
330
1F
100
AcDbEntity
  8
1
  6
Continuous
 62
    40
370
    13
100
AcDbSpline
210
0.0
220
0.0
230
1.0
 70
     8
 71
     3
 72
    35
 73
    31
 74
     0
 42
0.000000001
 43
0.0000000001
 40
0.0
 40
0.0
 40
0.0
 40
0.0
 40
0.0624999999999977
 40
0.0624999999999977
 40
0.1249999999999954
 40
0.1249999999999954
 40
0.2499999999999898
 40
0.2499999999999898
 40
0.2812499999999877
 40
0.2812499999999877
 40
0.3124999999999856
 40
0.374999999999983
 40
0.374999999999983
 40
0.4999999999999782
 40
0.4999999999999782
 40
0.5312499999999781
 40
0.5312499999999781
 40
0.5624999999999779
 40
0.5624999999999779
 40
0.6249999999999802
 40
0.6249999999999802
 40
0.7499999999999843
 40
0.7499999999999843
 40
0.8124999999999872
 40
0.8124999999999872
 40
0.8437499999999893
 40
0.8437499999999893
 40
0.8749999999999913
 40
0.8749999999999913
 40
1.0
 40
1.0
 40
1.0
 40
1.0
 10
138.4174611023778
 20
197.1231880252101
 30
0.0
 10
138.4795964819847
 20
197.1231880252101
 30
0.0
 10
138.5428550021798
 20
197.1273776854267
 30
0.0
 10
138.6713667537332
 20
197.1433895434538
 30
0.0
 10
138.7366215879421
 20
197.1552153147575
 30
0.0
 10
138.9352034745088
 20
197.2014301567775
 30
0.0
 10
139.0713126304402
 20
197.2464944038471
 30
0.0
 10
139.2461762066454
 20
197.3195101889
 30
0.0
 10
139.2814450068219
 20
197.3349799828896
 30
0.0
 10
139.3520910903509
 20
197.3674095158518
 30
0.0
 10
139.4582731164056
 20
197.4183027886931
 30
0.0
 10
139.565140793059
 20
197.4757256855
 30
0.0
 10
139.7799497127837
 20
197.5988462685517
 30
0.0
 10
139.9245772201267
 20
197.6919258426015
 30
0.0
 10
140.1078303396265
 20
197.8212086962374
 30
0.0
 10
140.1446051927392
 20
197.8477147033208
 30
0.0
 10
140.2184238559202
 20
197.9020158156371
 30
0.0
 10
140.2554750384437
 20
197.9298184360136
 30
0.0
 10
140.3664274313916
 20
198.0146526758983
 30
0.0
 10
140.4403389313377
 20
198.0732616998763
 30
0.0
 10
140.6621395430403
 20
198.25491064059
 30
0.0
 10
140.8100970930237
 20
198.3837466545875
 30
0.0
 10
141.0330511175802
 20
198.5877692206897
 30
0.0
 10
141.1075380183086
 20
198.6575780959135
 30
0.0
 10
141.2196282528875
 20
198.7649482219256
 30
0.0
 10
141.2570646177876
 20
198.8011941885723
 30
0.0
 10
141.3320206409224
 20
198.874516926997
 30
0.0
 10
141.369445315313
 20
198.9115004802709
 30
0.0
 10
141.5563414962309
 20
199.0979917583658
 30
0.0
 10
141.7051428461054
 20
199.2521890886479
 30
0.0
 10
141.8536376324604
 20
199.4111576187905
 30
0.0
  0
SPLINE
  5
14D
330
1F
100
AcDbEntity
  8
1
  6
Continuous
 62
    40
370
    13
100
AcDbSpline
210
0.0
220
0.0
230
1.0
 70
     8
 71
     3
 72
    38
 73
    34
 74
     0
 42
0.000000001
 43
0.0000000001
 40
0.0
 40
0.0
 40
0.0
 40
0.0
 40
0.1249999999999977
 40
0.1249999999999977
 40
0.1562499999999976
 40
0.1562499999999976
 40
0.1874999999999976
 40
0.1874999999999976
 40
0.2499999999999962
 40
0.2499999999999962
 40
0.3749999999999945
 40
0.3749999999999945
 40
0.4374999999999941
 40
0.4374999999999941
 40
0.4531249999999948
 40
0.4531249999999948
 40
0.4687499999999954
 40
0.4999999999999966
 40
0.4999999999999966
 40
0.6249999999999989
 40
0.6249999999999989
 40
0.6875000000000003
 40
0.6875000000000003
 40
0.7187500000000011
 40
0.7187500000000011
 40
0.7500000000000014
 40
0.7500000000000014
 40
0.8125000000000011
 40
0.8750000000000008
 40
0.8750000000000008
 40
0.9375000000000003
 40
0.9375000000000003
 40
1.0
 40
1.0
 40
1.0
 40
1.0
 10
142.858806483761
 20
198.5105199397669
 30
0.0
 10
142.7042244212303
 20
198.280158800223
 30
0.0
 10
142.5493926203818
 20
198.057393886069
 30
0.0
 10
142.3547738458515
 20
197.7885872558108
 30
0.0
 10
142.3157638587146
 20
197.7352693448311
 30
0.0
 10
142.2377469942271
 20
197.6298054450977
 30
0.0
 10
142.1988503466922
 20
197.5778075395733
 30
0.0
 10
142.0824531664537
 20
197.4239925489195
 30
0.0
 10
142.0052451927858
 20
197.3243511184453
 30
0.0
 10
141.7744618976854
 20
197.0340641135811
 30
0.0
 10
141.6217283111623
 20
196.8520109794602
 30
0.0
 10
141.3930158483367
 20
196.5967139673302
 30
0.0
 10
141.3168430041153
 20
196.5145899350185
 30
0.0
 10
141.2215687712373
 20
196.4158025572899
 30
0.0
 10
141.2024944489607
 20
196.3962220888525
 30
0.0
 10
141.1644553151989
 20
196.3575732788576
 30
0.0
 10
141.1075394991299
 20
196.3003450237787
 30
0.0
 10
141.0510331686498
 20
196.245341201448
 30
0.0
 10
140.8635099326132
 20
196.0669100960027
 30
0.0
 10
140.7161279236661
 20
195.9398178301903
 30
0.0
 10
140.4977914024731
 20
195.7730242223191
 30
0.0
 10
140.4254732113961
 20
195.7214150825602
 30
0.0
 10
140.3175751630028
 20
195.6501754021673
 30
0.0
 10
140.2817059664632
 20
195.6274589331422
 30
0.0
 10
140.2101461046013
 20
195.5841323729353
 30
0.0
 10
140.1745954118836
 20
195.5636086829319
 30
0.0
 10
140.0688533896449
 20
195.5055877302183
 30
0.0
 10
139.9300682259183
 20
195.4375505778036
 30
0.0
 10
139.7954741706499
 20
195.3881666810977
 30
0.0
 10
139.662956553805
 20
195.3482923142366
 30
0.0
 10
139.5977355077426
 20
195.3331087940044
 30
0.0
 10
139.4694513381412
 20
195.3126452030452
 30
0.0
 10
139.4063871241814
 20
195.3073625087544
 30
0.0
 10
139.3445045907878
 20
195.3073625087544
 30
0.0
  0
SPLINE
  5
14E
330
1F
100
AcDbEntity
  8
1
  6
Continuous
 62
    40
370
    18
100
AcDbSpline
210
0.0
220
0.0
230
1.0
 70
     8
 71
     3
 72
    14
 73
    10
 74
     0
 42
0.000000001
 43
0.0000000001
 40
0.0
 40
0.0
 40
0.0
 40
0.0
 40
0.1614036048051184
 40
0.1614036048051184
 40
0.3230597974111805
 40
0.3230597974111805
 40
0.6617800384810791
 40
0.6617800384810791
 40
1.0
 40
1.0
 40
1.0
 40
1.0
 10
123.4995894466823
 20
234.5690908085254
 30
0.0
 10
123.503827351909
 20
234.5050709193231
 30
0.0
 10
123.4954094486837
 20
234.3923955187201
 30
0.0
 10
123.4530300819615
 20
234.0679580400212
 30
0.0
 10
123.431823831217
 20
233.9056124681936
 30
0.0
 10
123.3661838582094
 20
233.4031021903963
 30
0.0
 10
123.3458950066669
 20
233.1874901938674
 30
0.0
 10
123.3549501766063
 20
233.003783106368
 30
0.0
 10
123.3745974230542
 20
232.9128481511785
 30
0.0
 10
123.410320725577
 20
232.8245920428242
 30
0.0
  0
SPLINE
  5
14F
330
1F
100
AcDbEntity
  8
1
  6
Continuous
 62
    40
370
    18
100
AcDbSpline
210
0.0
220
0.0
230
1.0
 70
     8
 71
     3
 72
    10
 73
     6
 74
     0
 42
0.000000001
 43
0.0000000001
 40
0.0
 40
0.0
 40
0.0
 40
0.0
 40
0.6384199376092694
 40
0.6384199376092694
 40
1.0
 40
1.0
 40
1.0
 40
1.0
 10
123.0583348704802
 20
233.9703947182824
 30
0.0
 10
122.9165461609639
 20
233.9339632042469
 30
0.0
 10
122.7077110805405
 20
233.9148033389299
 30
0.0
 10
122.2778494687202
 20
233.9103368427375
 30
0.0
 10
122.1662706637151
 20
233.8996168067952
 30
0.0
 10
122.0992975916873
 20
233.8812758253267
 30
0.0
  0
SPLINE
  5
150
330
1F
100
AcDbEntity
  8
1
  6
Continuous
 62
    40
370
    18
100
AcDbSpline
210
0.0
220
0.0
230
1.0
 70
     8
 71
     3
 72
    18
 73
    14
 74
     0
 42
0.000000001
 43
0.0000000001
 40
0.0
 40
0.0
 40
0.0
 40
0.0
 40
0.1214715444824046
 40
0.1214715444824046
 40
0.2441919994700443
 40
0.2441919994700443
 40
0.4334476408967754
 40
0.4334476408967754
 40
0.6236546268075503
 40
0.6236546268075503
 40
0.8118273134037736
 40
0.8118273134037736
 40
1.0
 40
1.0
 40
1.0
 40
1.0
 10
122.0992975916873
 20
233.8812758253267
 30
0.0
 10
122.0329994314752
 20
233.8620727046133
 30
0.0
 10
121.9782741764299
 20
233.8289742116048
 30
0.0
 10
121.8961955856014
 20
233.7338933272425
 30
0.0
 10
121.8711519715722
 20
233.6781093305741
 30
0.0
 10
121.8501776641952
 20
233.5175394134385
 30
0.0
 10
121.877482893742
 20
233.4311568880985
 30
0.0
 10
122.011136570115
 20
233.2817912793712
 30
0.0
 10
122.1157056766365
 20
233.2351816149506
 30
0.0
 10
122.403751271802
 20
233.1975559067273
 30
0.0
 10
122.5347152868466
 20
233.2114080236261
 30
0.0
 10
122.7738218249242
 20
233.3055596116726
 30
0.0
 10
122.8669332105645
 20
233.379308738058
 30
0.0
 10
122.9335033085061
 20
233.4789702019376
 30
0.0
  0
SPLINE
  5
151
330
1F
100
AcDbEntity
  8
1
  6
Continuous
 62
    40
370
    18
100
AcDbSpline
210
0.0
220
0.0
230
1.0
 70
     8
 71
     3
 72
    16
 73
    12
 74
     0
 42
0.000000001
 43
0.0000000001
 40
0.0
 40
0.0
 40
0.0
 40
0.0
 40
0.2017302927074907
 40
0.2017302927074907
 40
0.4021551280973131
 40
0.4021551280973131
 40
0.6017551699258634
 40
0.6017551699258634
 40
0.8001995450780502
 40
0.8001995450780502
 40
1.0
 40
1.0
 40
1.0
 40
1.0
 10
121.8680580269843
 20
234.9687372496063
 30
0.0
 10
121.9554928234851
 20
235.0532896086674
 30
0.0
 10
122.0748891204969
 20
235.1112216195958
 30
0.0
 10
122.3737361562976
 20
235.1755626515578
 30
0.0
 10
122.5436902504231
 20
235.1792394464065
 30
0.0
 10
122.9192335667008
 20
235.1301844235885
 30
0.0
 10
123.0681168007334
 20
235.0882912745371
 30
0.0
 10
123.2915281658999
 20
234.9711301301099
 30
0.0
 10
123.370293877205
 20
234.905633451913
 30
0.0
 10
123.4634664919029
 20
234.7598835340907
 30
0.0
 10
123.4910299630814
 20
234.6723741736481
 30
0.0
 10
123.4995894466823
 20
234.5690908085254
 30
0.0
  0
SPLINE
  5
152
330
1F
100
AcDbEntity
  8
1
  6
Continuous
 62
    40
370
    18
100
AcDbSpline
210
0.0
220
0.0
230
1.0
 70
     8
 71
     3
 72
     8
 73
     4
 74
     0
 42
0.000000001
 43
0.0000000001
 40
0.0
 40
0.0
 40
0.0
 40
0.0
 40
1.0
 40
1.0
 40
1.0
 40
1.0
 10
122.9335033085061
 20
233.4789702019376
 30
0.0
 10
122.9838284991637
 20
233.556760279319
 30
0.0
 10
123.019865406239
 20
233.6758897043891
 30
0.0
 10
123.040839713616
 20
233.8364596215247
 30
0.0
  0
SPLINE
  5
153
330
1F
100
AcDbEntity
  8
1
  6
Continuous
 62
    40
370
    18
100
AcDbSpline
210
0.0
220
0.0
230
1.0
 70
    24
 71
     3
 72
     8
 73
     4
 74
     0
 42
0.000000001
 43
0.0000000001
 40
0.0
 40
0.0
 40
0.0
 40
0.0
 40
1.0
 40
1.0
 40
1.0
 40
1.0
 10
123.040839713616
 20
233.8364596215247
 30
0.0
 10
123.0466714325707
 20
233.8811046537773
 30
0.0
 10
123.0525031515255
 20
233.9257496860299
 30
0.0
 10
123.0583348704802
 20
233.9703947182824
 30
0.0
  0
SPLINE
  5
154
330
1F
100
AcDbEntity
  8
1
  6
Continuous
 62
    40
370
    18
100
AcDbSpline
210
0.0
220
0.0
230
1.0
 70
     8
 71
     3
 72
     8
 73
     4
 74
     0
 42
0.000000001
 43
0.0000000001
 40
0.0
 40
0.0
 40
0.0
 40
0.0
 40
1.0
 40
1.0
 40
1.0
 40
1.0
 10
123.0223883514428
 20
232.8752653756733
 30
0.0
 10
122.9935135713771
 20
232.9556610864467
 30
0.0
 10
122.9803657588066
 20
233.0479341060581
 30
0.0
 10
122.9827461051306
 20
233.1505624447715
 30
0.0
  0
SPLINE
  5
155
330
1F
100
AcDbEntity
  8
1
  6
Continuous
 62
    40
370
    18
100
AcDbSpline
210
0.0
220
0.0
230
1.0
 70
     8
 71
     3
 72
    20
 73
    16
 74
     0
 42
0.000000001
 43
0.0000000001
 40
0.0
 40
0.0
 40
0.0
 40
0.0
 40
0.1216394651645624
 40
0.1216394651645624
 40
0.2439309049911884
 40
0.2439309049911884
 40
0.4451617927482285
 40
0.4451617927482285
 40
0.6463926805052688
 40
0.6463926805052688
 40
0.7635650961612696
 40
0.7635650961612696
 40
0.8815192424483679
 40
0.8815192424483679
 40
1.0
 40
1.0
 40
1.0
 40
1.0
 10
122.9827461051306
 20
233.1505624447715
 30
0.0
 10
122.829907787121
 20
233.0536559188084
 30
0.0
 10
122.6868634711398
 20
232.9895251563962
 30
0.0
 10
122.4198479770481
 20
232.9281731677851
 30
0.0
 10
122.2804261659848
 20
232.9226488622222
 30
0.0
 10
121.8932681079666
 20
232.9732210506943
 30
0.0
 10
121.7157612830616
 20
233.0552301667475
 30
0.0
 10
121.4873586076164
 20
233.3203548285012
 30
0.0
 10
121.4416004881401
 20
233.4764839605451
 30
0.0
 10
121.4788771007769
 20
233.7618570360231
 30
0.0
 10
121.5162795626364
 20
233.8552667641895
 30
0.0
 10
121.6369086319519
 20
234.0165656767503
 30
0.0
 10
121.7100204113051
 20
234.0784069420173
 30
0.0
 10
121.8820819248928
 20
234.1629791485017
 30
0.0
 10
121.9760134736904
 20
234.1914919055489
 30
0.0
 10
122.0787044913561
 20
234.2059412405459
 30
0.0
  0
SPLINE
  5
156
330
1F
100
AcDbEntity
  8
1
  6
Continuous
 62
    40
370
    18
100
AcDbSpline
210
0.0
220
0.0
230
1.0
 70
     8
 71
     3
 72
     8
 73
     4
 74
     0
 42
0.000000001
 43
0.0000000001
 40
0.0
 40
0.0
 40
0.0
 40
0.0
 40
1.0
 40
1.0
 40
1.0
 40
1.0
 10
121.6563668365234
 20
234.620235207322
 30
0.0
 10
121.7096426938863
 20
234.7688459675696
 30
0.0
 10
121.7799483186679
 20
234.88504702979
 30
0.0
 10
121.8680580269843
 20
234.9687372496063
 30
0.0
  0
SPLINE
  5
157
330
1F
100
AcDbEntity
  8
1
  6
Continuous
 62
    40
370
    18
100
AcDbSpline
210
0.0
220
0.0
230
1.0
 70
    24
 71
     3
 72
     8
 73
     4
 74
     0
 42
0.000000001
 43
0.0000000001
 40
0.0
 40
0.0
 40
0.0
 40
0.0
 40
1.0
 40
1.0
 40
1.0
 40
1.0
 10
123.410320725577
 20
232.8245920428242
 30
0.0
 10
123.2810099341989
 20
232.8414831537739
 30
0.0
 10
123.1516991428209
 20
232.8583742647236
 30
0.0
 10
123.0223883514428
 20
232.8752653756733
 30
0.0
  0
SPLINE
  5
158
330
1F
100
AcDbEntity
  8
1
  6
Continuous
 62
    40
370
    18
100
AcDbSpline
210
0.0
220
0.0
230
1.0
 70
     8
 71
     3
 72
    16
 73
    12
 74
     0
 42
0.000000001
 43
0.0000000001
 40
0.0
 40
0.0
 40
0.0
 40
0.0
 40
0.0173977322142899
 40
0.0173977322142899
 40
0.2179833506849547
 40
0.2179833506849547
 40
0.4906750353164228
 40
0.4906750353164228
 40
0.7453375176582054
 40
0.7453375176582054
 40
1.0
 40
1.0
 40
1.0
 40
1.0
 10
123.0957108874173
 20
234.2565287886284
 30
0.0
 10
123.1038202034735
 20
234.3065521611587
 30
0.0
 10
123.1087695002048
 20
234.3384128012353
 30
0.0
 10
123.1299426161825
 20
234.5005047081067
 30
0.0
 10
123.1080418682952
 20
234.6101746412221
 30
0.0
 10
122.9623768990394
 20
234.7752969893217
 30
0.0
 10
122.8262428431491
 20
234.834287428157
 30
0.0
 10
122.463862900844
 20
234.8816229965669
 30
0.0
 10
122.3314496578678
 20
234.86873416329
 30
0.0
 10
122.1484914973463
 20
234.7703441595752
 30
0.0
 10
122.0734039221283
 20
234.671795283842
 30
0.0
 10
122.0131592197211
 20
234.5240948229869
 30
0.0
  0
SPLINE
  5
159
330
1F
100
AcDbEntity
  8
1
  6
Continuous
 62
    40
370
    18
100
AcDbSpline
210
0.0
220
0.0
230
1.0
 70
    24
 71
     3
 72
     8
 73
     4
 74
     0
 42
0.000000001
 43
0.0000000001
 40
0.0
 40
0.0
 40
0.0
 40
0.0
 40
1.0
 40
1.0
 40
1.0
 40
1.0
 10
122.0131592197211
 20
234.5240948229869
 30
0.0
 10
121.8942284253219
 20
234.5561416177653
 30
0.0
 10
121.7752976309226
 20
234.5881884125436
 30
0.0
 10
121.6563668365234
 20
234.620235207322
 30
0.0
  0
SPLINE
  5
15A
330
1F
100
AcDbEntity
  8
1
  6
Continuous
 62
    40
370
    18
100
AcDbSpline
210
0.0
220
0.0
230
1.0
 70
     8
 71
     3
 72
    10
 73
     6
 74
     0
 42
0.000000001
 43
0.0000000001
 40
0.0
 40
0.0
 40
0.0
 40
0.0
 40
0.3293446934493998
 40
0.3293446934493998
 40
1.0
 40
1.0
 40
1.0
 40
1.0
 10
122.0787044913561
 20
234.2059412405459
 30
0.0
 10
122.1547496298887
 20
234.2153573964347
 30
0.0
 10
122.2670882215747
 20
234.2192587717392
 30
0.0
 10
122.7207356126727
 20
234.2140528288749
 30
0.0
 10
122.9476491629593
 20
234.226334538061
 30
0.0
 10
123.0957108874173
 20
234.2565287886284
 30
0.0
  0
SPLINE
  5
15B
330
1F
100
AcDbEntity
  8
1
  6
Continuous
 62
    40
370
    18
100
AcDbSpline
210
0.0
220
0.0
230
1.0
 70
     8
 71
     3
 72
    12
 73
     8
 74
     0
 42
0.000000001
 43
0.0000000001
 40
0.0
 40
0.0
 40
0.0
 40
0.0
 40
0.3634779686132097
 40
0.3634779686132097
 40
0.7280876759124395
 40
0.7280876759124395
 40
1.0
 40
1.0
 40
1.0
 40
1.0
 10
116.4716608976244
 20
233.8561129890584
 30
0.0
 10
116.5164696595773
 20
233.6212558486879
 30
0.0
 10
116.6082356800413
 20
233.4490227105154
 30
0.0
 10
116.8861141720151
 20
233.2294631554344
 30
0.0
 10
117.0472393629523
 20
233.1866384125569
 30
0.0
 10
117.3662653451062
 20
233.2282505809788
 30
0.0
 10
117.4778494921123
 20
233.2784072557878
 30
0.0
 10
117.5655091771997
 20
233.3610455338676
 30
0.0
  0
SPLINE
  5
15C
330
1F
100
AcDbEntity
  8
1
  6
Continuous
 62
    40
370
    18
100
AcDbSpline
210
0.0
220
0.0
230
1.0
 70
     8
 71
     3
 72
    12
 73
     8
 74
     0
 42
0.000000001
 43
0.0000000001
 40
0.0
 40
0.0
 40
0.0
 40
0.0
 40
0.2528560328763419
 40
0.2528560328763419
 40
0.6449855879757984
 40
0.6449855879757984
 40
1.0
 40
1.0
 40
1.0
 40
1.0
 10
117.6775826203504
 20
234.3191219144099
 30
0.0
 10
117.6376970387318
 20
234.4981220799715
 30
0.0
 10
117.5726945665201
 20
234.6281824423132
 30
0.0
 10
117.3470214957042
 20
234.8336789689839
 30
0.0
 10
117.1841614505753
 20
234.8839925393008
 30
0.0
 10
116.8256443881062
 20
234.8372293500306
 30
0.0
 10
116.6889635430597
 20
234.7621282870761
 30
0.0
 10
116.5874049397651
 20
234.6351092652554
 30
0.0
  0
SPLINE
  5
15D
330
1F
100
AcDbEntity
  8
1
  6
Continuous
 62
    40
370
    18
100
AcDbSpline
210
0.0
220
0.0
230
1.0
 70
     8
 71
     3
 72
     8
 73
     4
 74
     0
 42
0.000000001
 43
0.0000000001
 40
0.0
 40
0.0
 40
0.0
 40
0.0
 40
1.0
 40
1.0
 40
1.0
 40
1.0
 10
116.5874049397651
 20
234.6351092652554
 30
0.0
 10
116.4859455992795
 20
234.507329230098
 30
0.0
 10
116.4412305752814
 20
234.3490265688289
 30
0.0
 10
116.45335913058
 20
234.1594402681114
 30
0.0
  0
SPLINE
  5
15E
330
1F
100
AcDbEntity
  8
1
  6
Continuous
 62
    40
370
    18
100
AcDbSpline
210
0.0
220
0.0
230
1.0
 70
    24
 71
     3
 72
     8
 73
     4
 74
     0
 42
0.000000001
 43
0.0000000001
 40
0.0
 40
0.0
 40
0.0
 40
0.0
 40
1.0
 40
1.0
 40
1.0
 40
1.0
 10
116.45335913058
 20
234.1594402681114
 30
0.0
 10
116.8614336271701
 20
234.2126674835442
 30
0.0
 10
117.2695081237602
 20
234.2658946989771
 30
0.0
 10
117.6775826203504
 20
234.3191219144099
 30
0.0
  0
SPLINE
  5
15F
330
1F
100
AcDbEntity
  8
1
  6
Continuous
 62
    40
370
    18
100
AcDbSpline
210
0.0
220
0.0
230
1.0
 70
    24
 71
     3
 72
     8
 73
     4
 74
     0
 42
0.000000001
 43
0.0000000001
 40
0.0
 40
0.0
 40
0.0
 40
0.0
 40
1.0
 40
1.0
 40
1.0
 40
1.0
 10
118.1070562236176
 20
234.069425852425
 30
0.0
 10
117.5619244482865
 20
233.9983215646361
 30
0.0
 10
117.0167926729555
 20
233.9272172768473
 30
0.0
 10
116.4716608976244
 20
233.8561129890584
 30
0.0
  0
SPLINE
  5
160
330
1F
100
AcDbEntity
  8
1
  6
Continuous
 62
    40
370
    18
100
AcDbSpline
210
0.0
220
0.0
230
1.0
 70
     8
 71
     3
 72
     8
 73
     4
 74
     0
 42
0.000000001
 43
0.0000000001
 40
0.0
 40
0.0
 40
0.0
 40
0.0
 40
1.0
 40
1.0
 40
1.0
 40
1.0
 10
117.5655091771997
 20
233.3610455338676
 30
0.0
 10
117.6522952645699
 20
233.4443438248753
 30
0.0
 10
117.7143627875494
 20
233.5662118258476
 30
0.0
 10
117.7507388856119
 20
233.7280705630492
 30
0.0
  0
SPLINE
  5
161
330
1F
100
AcDbEntity
  8
1
  6
Continuous
 62
    40
370
    18
100
AcDbSpline
210
0.0
220
0.0
230
1.0
 70
     8
 71
     3
 72
    24
 73
    20
 74
     0
 42
0.000000001
 43
0.0000000001
 40
0.0
 40
0.0
 40
0.0
 40
0.0
 40
0.1029212031220401
 40
0.1029212031220401
 40
0.2061562748853262
 40
0.2061562748853262
 40
0.3360630217242328
 40
0.3360630217242328
 40
0.4657074759177346
 40
0.4657074759177346
 40
0.599570296299742
 40
0.599570296299742
 40
0.733433116681749
 40
0.733433116681749
 40
0.8628452550561704
 40
0.8628452550561704
 40
0.9922573934305893
 40
0.9922573934305893
 40
1.0
 40
1.0
 40
1.0
 40
1.0
 10
118.1408640314001
 20
233.7317449522679
 30
0.0
 10
118.1084777882738
 20
233.5030720523164
 30
0.0
 10
118.0185333586237
 20
233.3171989922733
 30
0.0
 10
117.7230783020967
 20
233.030616235717
 30
0.0
 10
117.5216243908916
 20
232.9428003742818
 30
0.0
 10
116.9462935541431
 20
232.8677570705501
 30
0.0
 10
116.679705327527
 20
232.9312776302337
 30
0.0
 10
116.2529872291517
 20
233.2714864577786
 30
0.0
 10
116.1235239200532
 20
233.5305299583951
 30
0.0
 10
116.0305146679981
 20
234.2435994549284
 30
0.0
 10
116.0890306223608
 20
234.5375974398066
 30
0.0
 10
116.4162424898033
 20
234.9873806552438
 30
0.0
 10
116.6501526347091
 20
235.120053546099
 30
0.0
 10
117.2456161790693
 20
235.1977228604593
 30
0.0
 10
117.498464902957
 20
235.1308622667439
 30
0.0
 10
117.9213652683206
 20
234.7866595812014
 30
0.0
 10
118.050218594164
 20
234.5232928023534
 30
0.0
 10
118.0994529474397
 20
234.1458301873262
 30
0.0
 10
118.1029469133195
 20
234.1130056134373
 30
0.0
 10
118.1070562236176
 20
234.069425852425
 30
0.0
  0
SPLINE
  5
162
330
1F
100
AcDbEntity
  8
1
  6
Continuous
 62
    40
370
    18
100
AcDbSpline
210
0.0
220
0.0
230
1.0
 70
    24
 71
     3
 72
     8
 73
     4
 74
     0
 42
0.000000001
 43
0.0000000001
 40
0.0
 40
0.0
 40
0.0
 40
0.0
 40
1.0
 40
1.0
 40
1.0
 40
1.0
 10
117.7507388856119
 20
233.7280705630492
 30
0.0
 10
117.8807806008747
 20
233.7292953594555
 30
0.0
 10
118.0108223161374
 20
233.7305201558617
 30
0.0
 10
118.1408640314001
 20
233.7317449522679
 30
0.0
  0
SPLINE
  5
163
330
1F
100
AcDbEntity
  8
1
  6
Continuous
 62
    40
370
    18
100
AcDbSpline
210
0.0
220
0.0
230
1.0
 70
    24
 71
     3
 72
     8
 73
     4
 74
     0
 42
0.000000001
 43
0.0000000001
 40
0.0
 40
0.0
 40
0.0
 40
0.0
 40
1.0
 40
1.0
 40
1.0
 40
1.0
 10
119.2829085214655
 20
234.0234686261393
 30
0.0
 10
119.4003423917963
 20
234.4478629296255
 30
0.0
 10
119.5177762621271
 20
234.8722572331117
 30
0.0
 10
119.6352101324579
 20
235.2966515365978
 30
0.0
  0
SPLINE
  5
164
330
1F
100
AcDbEntity
  8
1
  6
Continuous
 62
    40
370
    18
100
AcDbSpline
210
0.0
220
0.0
230
1.0
 70
    24
 71
     3
 72
     8
 73
     4
 74
     0
 42
0.000000001
 43
0.0000000001
 40
0.0
 40
0.0
 40
0.0
 40
0.0
 40
1.0
 40
1.0
 40
1.0
 40
1.0
 10
120.6407997082053
 20
233.1231121499021
 30
0.0
 10
120.5109109861792
 20
233.1231242248236
 30
0.0
 10
120.3810222641531
 20
233.123136299745
 30
0.0
 10
120.2511335421271
 20
233.1231483746664
 30
0.0
  0
SPLINE
  5
165
330
1F
100
AcDbEntity
  8
1
  6
Continuous
 62
    40
370
    18
100
AcDbSpline
210
0.0
220
0.0
230
1.0
 70
    24
 71
     3
 72
     8
 73
     4
 74
     0
 42
0.000000001
 43
0.0000000001
 40
0.0
 40
0.0
 40
0.0
 40
0.0
 40
1.0
 40
1.0
 40
1.0
 40
1.0
 10
120.2511335421271
 20
233.1231483746664
 30
0.0
 10
120.1340397582301
 20
233.5570298171285
 30
0.0
 10
120.0169459743332
 20
233.9909112595906
 30
0.0
 10
119.8998521904363
 20
234.4247927020527
 30
0.0
  0
SPLINE
  5
166
330
1F
100
AcDbEntity
  8
1
  6
Continuous
 62
    40
370
    18
100
AcDbSpline
210
0.0
220
0.0
230
1.0
 70
     8
 71
     3
 72
     8
 73
     4
 74
     0
 42
0.000000001
 43
0.0000000001
 40
0.0
 40
0.0
 40
0.0
 40
0.0
 40
1.0
 40
1.0
 40
1.0
 40
1.0
 10
119.1688563139364
 20
233.5752827572195
 30
0.0
 10
119.1743247131534
 20
233.598306040208
 30
0.0
 10
119.2126024374851
 20
233.7479571255514
 30
0.0
 10
119.2829085214655
 20
234.0234686261393
 30
0.0
  0
SPLINE
  5
167
330
1F
100
AcDbEntity
  8
1
  6
Continuous
 62
    40
370
    18
100
AcDbSpline
210
0.0
220
0.0
230
1.0
 70
    24
 71
     3
 72
     8
 73
     4
 74
     0
 42
0.000000001
 43
0.0000000001
 40
0.0
 40
0.0
 40
0.0
 40
0.0
 40
1.0
 40
1.0
 40
1.0
 40
1.0
 10
119.6352101324579
 20
235.2966515365978
 30
0.0
 10
119.7635370662432
 20
235.2966396068658
 30
0.0
 10
119.8918640000285
 20
235.2966276771338
 30
0.0
 10
120.0201909338138
 20
235.2966157474018
 30
0.0
  0
SPLINE
  5
168
330
1F
100
AcDbEntity
  8
1
  6
Continuous
 62
    40
370
    18
100
AcDbSpline
210
0.0
220
0.0
230
1.0
 70
     8
 71
     3
 72
    10
 73
     6
 74
     0
 42
0.000000001
 43
0.0000000001
 40
0.0
 40
0.0
 40
0.0
 40
0.0
 40
0.7520822760251137
 40
0.7520822760251137
 40
1.0
 40
1.0
 40
1.0
 40
1.0
 10
120.0201909338138
 20
235.2966157474018
 30
0.0
 10
120.1305182291099
 20
234.8762933888831
 30
0.0
 10
120.2408455244059
 20
234.4559710303645
 30
0.0
 10
120.3875413033294
 20
233.897092870464
 30
0.0
 10
120.4250717310453
 20
233.7588446659248
 30
0.0
 10
120.462021186717
 20
233.6204426629643
 30
0.0
  0
SPLINE
  5
169
330
1F
100
AcDbEntity
  8
1
  6
Continuous
 62
    40
370
    18
100
AcDbSpline
210
0.0
220
0.0
230
1.0
 70
     8
 71
     3
 72
    10
 73
     6
 74
     0
 42
0.000000001
 43
0.0000000001
 40
0.0
 40
0.0
 40
0.0
 40
0.0
 40
0.2504519224872667
 40
0.2504519224872667
 40
1.0
 40
1.0
 40
1.0
 40
1.0
 10
120.462021186717
 20
233.6204426629643
 30
0.0
 10
120.5042024779372
 20
233.7603722290702
 30
0.0
 10
120.5463837691574
 20
233.900301795176
 30
0.0
 10
120.7148044816091
 20
234.4590100882335
 30
0.0
 10
120.8411320213631
 20
234.8777622470998
 30
0.0
 10
120.9674155018558
 20
235.2965276900088
 30
0.0
  0
SPLINE
  5
16A
330
1F
100
AcDbEntity
  8
1
  6
Continuous
 62
    40
370
    18
100
AcDbSpline
210
0.0
220
0.0
230
1.0
 70
    24
 71
     3
 72
     8
 73
     4
 74
     0
 42
0.000000001
 43
0.0000000001
 40
0.0
 40
0.0
 40
0.0
 40
0.0
 40
1.0
 40
1.0
 40
1.0
 40
1.0
 10
120.9674155018558
 20
235.2965276900088
 30
0.0
 10
121.0889746865977
 20
235.296516389431
 30
0.0
 10
121.2105338713395
 20
235.2965050888533
 30
0.0
 10
121.3320930560814
 20
235.2964937882755
 30
0.0
  0
SPLINE
  5
16B
330
1F
100
AcDbEntity
  8
1
  6
Continuous
 62
    40
370
    18
100
AcDbSpline
210
0.0
220
0.0
230
1.0
 70
    24
 71
     3
 72
     8
 73
     4
 74
     0
 42
0.000000001
 43
0.0000000001
 40
0.0
 40
0.0
 40
0.0
 40
0.0
 40
1.0
 40
1.0
 40
1.0
 40
1.0
 10
121.3320930560814
 20
235.2964937882755
 30
0.0
 10
121.1016619401227
 20
234.572033242151
 30
0.0
 10
120.871230824164
 20
233.8475726960266
 30
0.0
 10
120.6407997082053
 20
233.1231121499021
 30
0.0
  0
SPLINE
  5
16C
330
1F
100
AcDbEntity
  8
1
  6
Continuous
 62
    40
370
    18
100
AcDbSpline
210
0.0
220
0.0
230
1.0
 70
    24
 71
     3
 72
     8
 73
     4
 74
     0
 42
0.000000001
 43
0.0000000001
 40
0.0
 40
0.0
 40
0.0
 40
0.0
 40
1.0
 40
1.0
 40
1.0
 40
1.0
 10
119.8998521904363
 20
234.4247927020527
 30
0.0
 10
119.8712308689146
 20
234.5481005564702
 30
0.0
 10
119.842609547393
 20
234.6714084108878
 30
0.0
 10
119.8139882258713
 20
234.7947162653053
 30
0.0
  0
SPLINE
  5
16D
330
1F
100
AcDbEntity
  8
1
  6
Continuous
 62
    40
370
    18
100
AcDbSpline
210
0.0
220
0.0
230
1.0
 70
    24
 71
     3
 72
     8
 73
     4
 74
     0
 42
0.000000001
 43
0.0000000001
 40
0.0
 40
0.0
 40
0.0
 40
0.0
 40
1.0
 40
1.0
 40
1.0
 40
1.0
 10
119.8139882258713
 20
234.7947162653053
 30
0.0
 10
119.6647856518198
 20
234.2375543850309
 30
0.0
 10
119.5155830777683
 20
233.6803925047564
 30
0.0
 10
119.3663805037168
 20
233.123230624482
 30
0.0
  0
SPLINE
  5
16E
330
1F
100
AcDbEntity
  8
1
  6
Continuous
 62
    40
370
    18
100
AcDbSpline
210
0.0
220
0.0
230
1.0
 70
    24
 71
     3
 72
     8
 73
     4
 74
     0
 42
0.000000001
 43
0.0000000001
 40
0.0
 40
0.0
 40
0.0
 40
0.0
 40
1.0
 40
1.0
 40
1.0
 40
1.0
 10
119.3663805037168
 20
233.123230624482
 30
0.0
 10
119.2359711856105
 20
233.1232427477999
 30
0.0
 10
119.1055618675041
 20
233.1232548711178
 30
0.0
 10
118.9751525493977
 20
233.1232669944357
 30
0.0
  0
SPLINE
  5
16F
330
1F
100
AcDbEntity
  8
1
  6
Continuous
 62
    40
370
    18
100
AcDbSpline
210
0.0
220
0.0
230
1.0
 70
     8
 71
     3
 72
    10
 73
     6
 74
     0
 42
0.000000001
 43
0.0000000001
 40
0.0
 40
0.0
 40
0.0
 40
0.0
 40
0.7289096076549586
 40
0.7289096076549586
 40
1.0
 40
1.0
 40
1.0
 40
1.0
 10
118.6856428820546
 20
235.296739811775
 30
0.0
 10
118.8029984146898
 20
234.8784633591173
 30
0.0
 10
118.9203539473249
 20
234.4601869064596
 30
0.0
 10
119.0813554369509
 20
233.8863483285826
 30
0.0
 10
119.1251407026109
 20
233.730825322747
 30
0.0
 10
119.1688563139364
 20
233.5752827572195
 30
0.0
  0
SPLINE
  5
170
330
1F
100
AcDbEntity
  8
1
  6
Continuous
 62
    40
370
    18
100
AcDbSpline
210
0.0
220
0.0
230
1.0
 70
    24
 71
     3
 72
     8
 73
     4
 74
     0
 42
0.000000001
 43
0.0000000001
 40
0.0
 40
0.0
 40
0.0
 40
0.0
 40
1.0
 40
1.0
 40
1.0
 40
1.0
 10
118.2983193983375
 20
235.2967758187551
 30
0.0
 10
118.4274272262432
 20
235.2967638164284
 30
0.0
 10
118.5565350541489
 20
235.2967518141017
 30
0.0
 10
118.6856428820546
 20
235.296739811775
 30
0.0
  0
SPLINE
  5
171
330
1F
100
AcDbEntity
  8
1
  6
Continuous
 62
    40
370
    18
100
AcDbSpline
210
0.0
220
0.0
230
1.0
 70
    24
 71
     3
 72
     8
 73
     4
 74
     0
 42
0.000000001
 43
0.0000000001
 40
0.0
 40
0.0
 40
0.0
 40
0.0
 40
1.0
 40
1.0
 40
1.0
 40
1.0
 10
118.9751525493977
 20
233.1232669944357
 30
0.0
 10
118.7495414990443
 20
233.8477699358755
 30
0.0
 10
118.5239304486909
 20
234.5722728773153
 30
0.0
 10
118.2983193983375
 20
235.2967758187551
 30
0.0
  0
SPLINE
  5
172
330
1F
100
AcDbEntity
  8
1
  6
Continuous
 62
    40
370
    18
100
AcDbSpline
210
0.0
220
0.0
230
1.0
 70
    24
 71
     3
 72
     8
 73
     4
 74
     0
 42
0.000000001
 43
0.0000000001
 40
0.0
 40
0.0
 40
0.0
 40
0.0
 40
1.0
 40
1.0
 40
1.0
 40
1.0
 10
113.6181008709491
 20
234.4297791230925
 30
0.0
 10
113.7285191731661
 20
234.4571088971909
 30
0.0
 10
113.8389374753831
 20
234.4844386712892
 30
0.0
 10
113.9493557776002
 20
234.5117684453875
 30
0.0
  0
SPLINE
  5
173
330
1F
100
AcDbEntity
  8
1
  6
Continuous
 62
    40
370
    18
100
AcDbSpline
210
0.0
220
0.0
230
1.0
 70
    24
 71
     3
 72
     8
 73
     4
 74
     0
 42
0.000000001
 43
0.0000000001
 40
0.0
 40
0.0
 40
0.0
 40
0.0
 40
1.0
 40
1.0
 40
1.0
 40
1.0
 10
113.9493557776002
 20
234.5117684453875
 30
0.0
 10
113.9719743845164
 20
234.4203842954411
 30
0.0
 10
113.9945929914326
 20
234.3290001454946
 30
0.0
 10
114.0172115983489
 20
234.2376159955481
 30
0.0
  0
SPLINE
  5
174
330
1F
100
AcDbEntity
  8
1
  6
Continuous
 62
    40
370
    18
100
AcDbSpline
210
0.0
220
0.0
230
1.0
 70
     8
 71
     3
 72
    26
 73
    22
 74
     0
 42
0.000000001
 43
0.0000000001
 40
0.0
 40
0.0
 40
0.0
 40
0.0
 40
0.0830854503763809
 40
0.0830854503763809
 40
0.1656782967550637
 40
0.1656782967550637
 40
0.2732722209564845
 40
0.2732722209564845
 40
0.380460889370507
 40
0.380460889370507
 40
0.4872486860466672
 40
0.4872486860466672
 40
0.601946689884027
 40
0.601946689884027
 40
0.7170552508491865
 40
0.7170552508491865
 40
0.831909514623418
 40
0.831909514623418
 40
0.915821305508702
 40
0.915821305508702
 40
1.0
 40
1.0
 40
1.0
 40
1.0
 10
114.0172115983489
 20
234.2376159955481
 30
0.0
 10
114.0687354199439
 20
234.3642177555457
 30
0.0
 10
114.1375095962989
 20
234.4666269143567
 30
0.0
 10
114.3075370825147
 20
234.6222221679042
 30
0.0
 10
114.4204137482175
 20
234.6789601719086
 30
0.0
 10
114.7433304306737
 20
234.7588856897522
 30
0.0
 10
114.9171634137699
 20
234.7521023598152
 30
0.0
 10
115.2427455630987
 20
234.6369835333085
 30
0.0
 10
115.3811774943932
 20
234.5317289194354
 30
0.0
 10
115.6069757380075
 20
234.2293470221693
 30
0.0
 10
115.6895126581032
 20
234.0530313085983
 30
0.0
 10
115.7927715157643
 20
233.6358427979731
 30
0.0
 10
115.8014804592368
 20
233.4316469863451
 30
0.0
 10
115.7288710583584
 20
233.0477559649177
 30
0.0
 10
115.6467876358084
 20
232.8865724464404
 30
0.0
 10
115.3926215490819
 20
232.6278067223186
 30
0.0
 10
115.2459200880024
 20
232.5430521598749
 30
0.0
 10
114.9586303634698
 20
232.4719447155962
 30
0.0
 10
114.8432061407685
 20
232.4702569415728
 30
0.0
 10
114.6256150909836
 20
232.5225120449786
 30
0.0
 10
114.5312688644489
 20
232.5669849739274
 30
0.0
 10
114.4501189390011
 20
232.6283331366111
 30
0.0
  0
SPLINE
  5
175
330
1F
100
AcDbEntity
  8
1
  6
Continuous
 62
    40
370
    18
100
AcDbSpline
210
0.0
220
0.0
230
1.0
 70
    24
 71
     3
 72
     8
 73
     4
 74
     0
 42
0.000000001
 43
0.0000000001
 40
0.0
 40
0.0
 40
0.0
 40
0.0
 40
1.0
 40
1.0
 40
1.0
 40
1.0
 10
114.4501189390011
 20
232.6283331366111
 30
0.0
 10
114.5348157877255
 20
232.2861392273007
 30
0.0
 10
114.6195126364499
 20
231.9439453179902
 30
0.0
 10
114.7042094851743
 20
231.6017514086798
 30
0.0
  0
SPLINE
  5
176
330
1F
100
AcDbEntity
  8
1
  6
Continuous
 62
    40
370
    18
100
AcDbSpline
210
0.0
220
0.0
230
1.0
 70
    24
 71
     3
 72
     8
 73
     4
 74
     0
 42
0.000000001
 43
0.0000000001
 40
0.0
 40
0.0
 40
0.0
 40
0.0
 40
1.0
 40
1.0
 40
1.0
 40
1.0
 10
114.7042094851743
 20
231.6017514086798
 30
0.0
 10
114.5829262241579
 20
231.5717324348418
 30
0.0
 10
114.4616429631415
 20
231.5417134610038
 30
0.0
 10
114.3403597021251
 20
231.5116944871658
 30
0.0
  0
SPLINE
  5
177
330
1F
100
AcDbEntity
  8
1
  6
Continuous
 62
    40
370
    18
100
AcDbSpline
210
0.0
220
0.0
230
1.0
 70
    24
 71
     3
 72
     8
 73
     4
 74
     0
 42
0.000000001
 43
0.0000000001
 40
0.0
 40
0.0
 40
0.0
 40
0.0
 40
1.0
 40
1.0
 40
1.0
 40
1.0
 10
114.3403597021251
 20
231.5116944871658
 30
0.0
 10
114.0996067583998
 20
232.4843893658081
 30
0.0
 10
113.8588538146745
 20
233.4570842444503
 30
0.0
 10
113.6181008709491
 20
234.4297791230925
 30
0.0
  0
SPLINE
  5
178
330
1F
100
AcDbEntity
  8
1
  6
Continuous
 62
    40
370
    18
100
AcDbSpline
210
0.0
220
0.0
230
1.0
 70
     8
 71
     3
 72
    14
 73
    10
 74
     0
 42
0.000000001
 43
0.0000000001
 40
0.0
 40
0.0
 40
0.0
 40
0.0
 40
0.2597969915420518
 40
0.2597969915420518
 40
0.5072553396863281
 40
0.5072553396863281
 40
0.7548294860878335
 40
0.7548294860878335
 40
1.0
 40
1.0
 40
1.0
 40
1.0
 10
115.3484322477915
 20
233.0941862364291
 30
0.0
 10
115.4307234729322
 20
233.2573208992919
 30
0.0
 10
115.436441118804
 20
233.4796538364475
 30
0.0
 10
115.2999919140375
 20
234.0309386540594
 30
0.0
 10
115.1941128851594
 20
234.2181993391393
 30
0.0
 10
114.9021426011003
 20
234.4290409755576
 30
0.0
 10
114.7512617270709
 20
234.4635762985413
 30
0.0
 10
114.4404733707164
 20
234.3866526780814
 30
0.0
 10
114.3209732001478
 20
234.2811756835343
 30
0.0
 10
114.2371826463706
 20
234.1094284841533
 30
0.0
  0
SPLINE
  5
179
330
1F
100
AcDbEntity
  8
1
  6
Continuous
 62
    40
370
    18
100
AcDbSpline
210
0.0
220
0.0
230
1.0
 70
     8
 71
     3
 72
    14
 73
    10
 74
     0
 42
0.000000001
 43
0.0000000001
 40
0.0
 40
0.0
 40
0.0
 40
0.0
 40
0.2485974925606094
 40
0.2485974925606094
 40
0.4978779452656212
 40
0.4978779452656212
 40
0.747158397970633
 40
0.747158397970633
 40
1.0
 40
1.0
 40
1.0
 40
1.0
 10
114.2371826463706
 20
234.1094284841533
 30
0.0
 10
114.152634072212
 20
233.9374936661857
 30
0.0
 10
114.1447691296626
 20
233.7157551200936
 30
0.0
 10
114.2791900354392
 20
233.1726650767976
 30
0.0
 10
114.3841266531188
 20
232.9859617526144
 30
0.0
 10
114.6726686904028
 20
232.7822439940404
 30
0.0
 10
114.8236383193844
 20
232.7508268873916
 30
0.0
 10
115.1442809406965
 20
232.8301895494758
 30
0.0
 10
115.2664034969313
 20
232.9315719042963
 30
0.0
 10
115.3484322477915
 20
233.0941862364291
 30
0.0
  0
SPLINE
  5
17A
330
1F
100
AcDbEntity
  8
1
  6
Continuous
 62
    40
370
    18
100
AcDbSpline
210
0.0
220
0.0
230
1.0
 70
     8
 71
     3
 72
    16
 73
    12
 74
     0
 42
0.000000001
 43
0.0000000001
 40
0.0
 40
0.0
 40
0.0
 40
0.0
 40
0.1633046513092898
 40
0.1633046513092898
 40
0.3823037842485351
 40
0.3823037842485351
 40
0.6193756611682009
 40
0.6193756611682009
 40
0.8564475380878687
 40
0.8564475380878687
 40
1.0
 40
1.0
 40
1.0
 40
1.0
 10
123.9855746096152
 20
232.4563548103722
 30
0.0
 10
123.9734041108845
 20
232.3455152725502
 30
0.0
 10
123.9949597478376
 20
232.2571570138318
 30
0.0
 10
124.1243769488148
 20
232.1029359405209
 30
0.0
 10
124.2394510268471
 20
232.0392541397381
 30
0.0
 10
124.5646267998509
 20
231.9587053057312
 30
0.0
 10
124.7023616081052
 20
231.9593760160735
 30
0.0
 10
124.9186403154674
 20
232.0465384555821
 30
0.0
 10
125.0038612909748
 20
232.124260323346
 30
0.0
 10
125.1023763115854
 20
232.3029635851189
 30
0.0
 10
125.1491792222132
 20
232.4543369429159
 30
0.0
 10
125.2054209302793
 20
232.6878803055239
 30
0.0
  0
SPLINE
  5
17B
330
1F
100
AcDbEntity
  8
1
  6
Continuous
 62
    40
370
    18
100
AcDbSpline
210
0.0
220
0.0
230
1.0
 70
     8
 71
     3
 72
    20
 73
    16
 74
     0
 42
0.000000001
 43
0.0000000001
 40
0.0
 40
0.0
 40
0.0
 40
0.0
 40
0.1395036667454517
 40
0.1395036667454517
 40
0.3128804282917132
 40
0.3128804282917132
 40
0.4862571898379756
 40
0.4862571898379756
 40
0.6053709954804452
 40
0.6053709954804452
 40
0.7238541056890656
 40
0.7238541056890656
 40
0.842337215897688
 40
0.842337215897688
 40
1.0
 40
1.0
 40
1.0
 40
1.0
 10
125.2054209302793
 20
232.6878803055239
 30
0.0
 10
125.000480705613
 20
232.5425633982825
 30
0.0
 10
124.7799493869681
 20
232.4999403749424
 30
0.0
 10
124.2478435765982
 20
232.6317475578629
 30
0.0
 10
124.0447660658103
 20
232.7927432590482
 30
0.0
 10
123.825569730469
 20
233.291388009657
 30
0.0
 10
123.8066516664489
 20
233.5625248063381
 30
0.0
 10
123.9289946095821
 20
234.0564234653985
 30
0.0
 10
124.0120837005123
 20
234.2327146005196
 30
0.0
 10
124.2445462205484
 20
234.5362927891607
 30
0.0
 10
124.3845164015887
 20
234.6417348909708
 30
0.0
 10
124.7122502748019
 20
234.7566347559999
 30
0.0
 10
124.8891164580384
 20
234.7626347274655
 30
0.0
 10
125.33253796668
 20
234.6527954083651
 30
0.0
 10
125.5160725160067
 20
234.5005939401507
 30
0.0
 10
125.6305479188767
 20
234.2579699786382
 30
0.0
  0
SPLINE
  5
17C
330
1F
100
AcDbEntity
  8
1
  6
Continuous
 62
    40
370
    18
100
AcDbSpline
210
0.0
220
0.0
230
1.0
 70
     8
 71
     3
 72
    16
 73
    12
 74
     0
 42
0.000000001
 43
0.0000000001
 40
0.0
 40
0.0
 40
0.0
 40
0.0
 40
0.3056457548920862
 40
0.3056457548920862
 40
0.4708293062492087
 40
0.4708293062492087
 40
0.6360128576063315
 40
0.6360128576063315
 40
0.8022063438439545
 40
0.8022063438439545
 40
1.0
 40
1.0
 40
1.0
 40
1.0
 10
126.0294445181581
 20
234.4295637653486
 30
0.0
 10
125.8788685881479
 20
233.8216884926589
 30
0.0
 10
125.7282926581378
 20
233.2138132199693
 30
0.0
 10
125.4963392953647
 20
232.2774171197598
 30
0.0
 10
125.4046567988364
 20
232.0534433997708
 30
0.0
 10
125.2003126195967
 20
231.8131002844801
 30
0.0
 10
125.065737399152
 20
231.7310001389765
 30
0.0
 10
124.7315001620314
 20
231.6456623698332
 30
0.0
 10
124.5398797284626
 20
231.6509454571756
 30
0.0
 10
124.0684127568813
 20
231.7677318785097
 30
0.0
 10
123.8755069482907
 20
231.8756060616443
 30
0.0
 10
123.7458944249913
 20
232.0278917102111
 30
0.0
  0
SPLINE
  5
17D
330
1F
100
AcDbEntity
  8
1
  6
Continuous
 62
    40
370
    18
100
AcDbSpline
210
0.0
220
0.0
230
1.0
 70
    24
 71
     3
 72
     8
 73
     4
 74
     0
 42
0.000000001
 43
0.0000000001
 40
0.0
 40
0.0
 40
0.0
 40
0.0
 40
1.0
 40
1.0
 40
1.0
 40
1.0
 10
125.6305479188767
 20
234.2579699786382
 30
0.0
 10
125.6515842620399
 20
234.3428937299699
 30
0.0
 10
125.6726206052031
 20
234.4278174813015
 30
0.0
 10
125.6936569483663
 20
234.5127412326332
 30
0.0
  0
SPLINE
  5
17E
330
1F
100
AcDbEntity
  8
1
  6
Continuous
 62
    40
370
    18
100
AcDbSpline
210
0.0
220
0.0
230
1.0
 70
    24
 71
     3
 72
     8
 73
     4
 74
     0
 42
0.000000001
 43
0.0000000001
 40
0.0
 40
0.0
 40
0.0
 40
0.0
 40
1.0
 40
1.0
 40
1.0
 40
1.0
 10
123.6443279116803
 20
232.595439724044
 30
0.0
 10
123.7580768109919
 20
232.5490780861534
 30
0.0
 10
123.8718257103036
 20
232.5027164482628
 30
0.0
 10
123.9855746096152
 20
232.4563548103722
 30
0.0
  0
SPLINE
  5
17F
330
1F
100
AcDbEntity
  8
1
  6
Continuous
 62
    40
370
    18
100
AcDbSpline
210
0.0
220
0.0
230
1.0
 70
     8
 71
     3
 72
    14
 73
    10
 74
     0
 42
0.000000001
 43
0.0000000001
 40
0.0
 40
0.0
 40
0.0
 40
0.0
 40
0.2602855603982314
 40
0.2602855603982314
 40
0.5083814389045366
 40
0.5083814389045366
 40
0.7564773174108523
 40
0.7564773174108523
 40
1.0
 40
1.0
 40
1.0
 40
1.0
 10
125.1178043416695
 20
232.9317576547533
 30
0.0
 10
125.262114164332
 20
233.030422168109
 30
0.0
 10
125.3680478764104
 20
233.2144956238956
 30
0.0
 10
125.4988791685394
 20
233.7426617615635
 30
0.0
 10
125.4886764402895
 20
233.9515499384286
 30
0.0
 10
125.3201712337029
 20
234.2716005764023
 30
0.0
 10
125.1961824996916
 20
234.3718912640373
 30
0.0
 10
124.870248741203
 20
234.4526278575641
 30
0.0
 10
124.7171838464084
 20
234.422547044561
 30
0.0
 10
124.571377920957
 20
234.3210905099767
 30
0.0
  0
SPLINE
  5
180
330
1F
100
AcDbEntity
  8
1
  6
Continuous
 62
    40
370
    18
100
AcDbSpline
210
0.0
220
0.0
230
1.0
 70
     8
 71
     3
 72
     8
 73
     4
 74
     0
 42
0.000000001
 43
0.0000000001
 40
0.0
 40
0.0
 40
0.0
 40
0.0
 40
1.0
 40
1.0
 40
1.0
 40
1.0
 10
123.7458944249913
 20
232.0278917102111
 30
0.0
 10
123.6162819016918
 20
232.1801773587779
 30
0.0
 10
123.5827405688585
 20
232.3695457586113
 30
0.0
 10
123.6443279116803
 20
232.595439724044
 30
0.0
  0
SPLINE
  5
181
330
1F
100
AcDbEntity
  8
1
  6
Continuous
 62
    40
370
    18
100
AcDbSpline
210
0.0
220
0.0
230
1.0
 70
    24
 71
     3
 72
     8
 73
     4
 74
     0
 42
0.000000001
 43
0.0000000001
 40
0.0
 40
0.0
 40
0.0
 40
0.0
 40
1.0
 40
1.0
 40
1.0
 40
1.0
 10
125.6936569483663
 20
234.5127412326332
 30
0.0
 10
125.8055861382969
 20
234.485015410205
 30
0.0
 10
125.9175153282275
 20
234.4572895877768
 30
0.0
 10
126.0294445181581
 20
234.4295637653486
 30
0.0
  0
SPLINE
  5
182
330
1F
100
AcDbEntity
  8
1
  6
Continuous
 62
    40
370
    18
100
AcDbSpline
210
0.0
220
0.0
230
1.0
 70
     8
 71
     3
 72
    14
 73
    10
 74
     0
 42
0.000000001
 43
0.0000000001
 40
0.0
 40
0.0
 40
0.0
 40
0.0
 40
0.2350607759406076
 40
0.2350607759406076
 40
0.4914907133303605
 40
0.4914907133303605
 40
0.7463192949119862
 40
0.7463192949119862
 40
1.0
 40
1.0
 40
1.0
 40
1.0
 10
124.571377920957
 20
234.3210905099767
 30
0.0
 10
124.4265145103165
 20
234.2201911610596
 30
0.0
 10
124.3222415621721
 20
234.0428222119571
 30
0.0
 10
124.1906721527392
 20
233.5116762935407
 30
0.0
 10
124.1967556312745
 20
233.2959019433639
 30
0.0
 10
124.3575068030373
 20
232.986522903611
 30
0.0
 10
124.4817946418071
 20
232.8876857789455
 30
0.0
 10
124.817582211599
 20
232.8045083116609
 30
0.0
 10
124.973494519007
 20
232.8330931413976
 30
0.0
 10
125.1178043416695
 20
232.9317576547533
 30
0.0
  0
SPLINE
  5
183
330
1F
100
AcDbEntity
  8
1
  6
Continuous
 62
    40
370
    13
100
AcDbSpline
210
0.0
220
0.0
230
1.0
 70
     8
 71
     3
 72
    33
 73
    29
 74
     0
 42
0.000000001
 43
0.0000000001
 40
0.0
 40
0.0
 40
0.0
 40
0.0
 40
0.1250000000000005
 40
0.1250000000000005
 40
0.250000000000001
 40
0.250000000000001
 40
0.3125000000000011
 40
0.3125000000000011
 40
0.3437500000000012
 40
0.3437500000000012
 40
0.3750000000000013
 40
0.3750000000000013
 40
0.5000000000000007
 40
0.5000000000000007
 40
0.6250000000000001
 40
0.6250000000000001
 40
0.6562500000000002
 40
0.6562500000000002
 40
0.6875000000000002
 40
0.7500000000000004
 40
0.7500000000000004
 40
0.8749999999999997
 40
0.8749999999999997
 40
0.9374999999999993
 40
0.9374999999999993
 40
0.9687499999999997
 40
0.9687499999999997
 40
1.0
 40
1.0
 40
1.0
 40
1.0
 10
97.7937363171192
 20
199.4111576187905
 30
0.0
 10
97.94247910143096
 20
199.2519235987164
 30
0.0
 10
98.09078761166863
 20
199.0982734436824
 30
0.0
 10
98.38739247828771
 20
198.8022367770513
 30
0.0
 10
98.53568613987144
 20
198.6598532774813
 30
0.0
 10
98.75889239397617
 20
198.4554156316505
 30
0.0
 10
98.83342376104027
 20
198.3887987193508
 30
0.0
 10
98.94553040603871
 20
198.2913103000904
 30
0.0
 10
98.98300424507963
 20
198.2591765923721
 30
0.0
 10
99.05767114119041
 20
198.1960910111121
 30
0.0
 10
99.09489290009662
 20
198.1651128038773
 30
0.0
 10
99.2804955363932
 20
198.0130616517345
 30
0.0
 10
99.4273638941871
 20
197.9004716455065
 30
0.0
 10
99.71910684928348
 20
197.6944099288415
 30
0.0
 10
99.86398062705874
 20
197.6009275061423
 30
0.0
 10
100.0445142376784
 20
197.4973189387819
 30
0.0
 10
100.0806423859242
 20
197.4772375778646
 30
0.0
 10
100.1524022973107
 20
197.4386911473027
 30
0.0
 10
100.2594253928985
 20
197.3832182869335
 30
0.0
 10
100.3646754981149
 20
197.334819185854
 30
0.0
 10
100.5729464049608
 20
197.2476800159939
 30
0.0
 10
100.7088555841573
 20
197.2023892628959
 30
0.0
 10
100.9083174594244
 20
197.1556910097715
 30
0.0
 10
100.97406351559
 20
197.1436809654726
 30
0.0
 10
101.0714780945093
 20
197.1314704770002
 30
0.0
 10
101.1036775019476
 20
197.1283805100817
 30
0.0
 10
101.1673249429092
 20
197.1242411688978
 30
0.0
 10
101.1988012309322
 20
197.12318802521
 30
0.0
 10
101.2299128472019
 20
197.12318802521
 30
0.0
  0
SPLINE
  5
184
330
1F
100
AcDbEntity
  8
1
  6
Continuous
 62
    40
370
    13
100
AcDbSpline
210
0.0
220
0.0
230
1.0
 70
     8
 71
     3
 72
    37
 73
    33
 74
     0
 42
0.000000001
 43
0.0000000001
 40
0.0
 40
0.0
 40
0.0
 40
0.0
 40
0.0624999999999994
 40
0.0624999999999994
 40
0.1249999999999988
 40
0.1249999999999988
 40
0.1874999999999982
 40
0.1874999999999982
 40
0.2499999999999976
 40
0.3124999999999963
 40
0.3124999999999963
 40
0.343749999999995
 40
0.3593749999999949
 40
0.3593749999999949
 40
0.3749999999999948
 40
0.3749999999999948
 40
0.4999999999999947
 40
0.4999999999999947
 40
0.6249999999999941
 40
0.6249999999999941
 40
0.6562499999999938
 40
0.6718749999999947
 40
0.6718749999999947
 40
0.6874999999999954
 40
0.6874999999999954
 40
0.7499999999999967
 40
0.7499999999999967
 40
0.874999999999998
 40
0.874999999999998
 40
0.937499999999999
 40
0.937499999999999
 40
1.0
 40
1.0
 40
1.0
 40
1.0
 10
100.3028693587919
 20
195.3073625087544
 30
0.0
 10
100.2408644811134
 20
195.3073625087544
 30
0.0
 10
100.1773379063166
 20
195.3126714532926
 30
0.0
 10
100.0475323936763
 20
195.3335131705127
 30
0.0
 10
99.98174649796864
 20
195.3489627640901
 30
0.0
 10
99.84850796192337
 20
195.3893266987077
 30
0.0
 10
99.7810545742042
 20
195.4142432301117
 30
0.0
 10
99.64448371031418
 20
195.4731891357213
 30
0.0
 10
99.50624802685782
 20
195.5412502569677
 30
0.0
 10
99.36453287436579
 20
195.6272031555384
 30
0.0
 10
99.25683124836358
 20
195.6983722015224
 30
0.0
 10
99.20262581025132
 20
195.735634534483
 30
0.0
 10
99.14786014130425
 20
195.7754287578163
 30
0.0
 10
99.111221513353
 20
195.8025237009635
 30
0.0
 10
99.09281958959804
 20
195.8163682120236
 30
0.0
 10
98.92712705873532
 20
195.9431273029761
 30
0.0
 10
98.77920590628415
 20
196.0711143313271
 30
0.0
 10
98.48056384046845
 20
196.3557388119212
 30
0.0
 10
98.32984605268965
 20
196.5123851012523
 30
0.0
 10
98.13855254815184
 20
196.7259972455061
 30
0.0
 10
98.0809458657882
 20
196.7914224877381
 30
0.0
 10
98.02297417162075
 20
196.8588763613527
 30
0.0
 10
97.98424090281237
 20
196.9042990940613
 30
0.0
 10
97.9648215687589
 20
196.9272493964914
 30
0.0
 10
97.86789775855053
 20
197.0426648604958
 30
0.0
 10
97.79061375649506
 20
197.1374634584597
 30
0.0
 10
97.55919170811514
 20
197.4289219029421
 30
0.0
 10
97.40547546947845
 20
197.6326043100969
 30
0.0
 10
97.17460187842137
 20
197.9516067206928
 30
0.0
 10
97.0975964539694
 20
198.0601973192588
 30
0.0
 10
96.94332073385239
 20
198.281920807406
 30
0.0
 10
96.86605058792199
 20
198.3950531125625
 30
0.0
 10
96.78856746581863
 20
198.510519939767
 30
0.0
  0
SPLINE
  5
185
330
1F
100
AcDbEntity
  8
1
  6
Continuous
 62
    40
370
    18
100
AcDbSpline
210
0.0
220
0.0
230
1.0
 70
     8
 71
     3
 72
    10
 73
     6
 74
     0
 42
0.000000001
 43
0.0000000001
 40
0.0
 40
0.0
 40
0.0
 40
0.0
 40
0.5
 40
0.5
 40
1.0
 40
1.0
 40
1.0
 40
1.0
 10
248.0431114226644
 20
199.4111576187905
 30
0.0
 10
248.0707512487546
 20
199.5242849789228
 30
0.0
 10
248.0920900267106
 20
199.6400816288129
 30
0.0
 10
248.1211262358607
 20
199.8772912028705
 30
0.0
 10
248.1288340336134
 20
199.9987006034495
 30
0.0
 10
248.1288340336134
 20
200.1231880252101
 30
0.0
  0
SPLINE
  5
186
330
1F
100
AcDbEntity
  8
1
  6
Continuous
 62
    40
370
    18
100
AcDbSpline
210
0.0
220
0.0
230
1.0
 70
     8
 71
     3
 72
    10
 73
     6
 74
     0
 42
0.000000001
 43
0.0000000001
 40
0.0
 40
0.0
 40
0.0
 40
0.0
 40
0.5
 40
0.5
 40
1.0
 40
1.0
 40
1.0
 40
1.0
 10
260.1288340336134
 20
200.1231880252101
 30
0.0
 10
260.1288340336134
 20
199.9987006034495
 30
0.0
 10
260.1365418313662
 20
199.8772912028705
 30
0.0
 10
260.1655780405162
 20
199.6400816288129
 30
0.0
 10
260.1869168184721
 20
199.5242849789229
 30
0.0
 10
260.2145566445624
 20
199.4111576187906
 30
0.0
  0
SPLINE
  5
187
330
1F
100
AcDbEntity
  8
1
  6
Continuous
 62
    40
370
    13
100
AcDbSpline
210
0.0
220
0.0
230
1.0
 70
     8
 71
     3
 72
    10
 73
     6
 74
     0
 42
0.000000001
 43
0.0000000001
 40
0.0
 40
0.0
 40
0.0
 40
0.0
 40
0.5
 40
0.5
 40
1.0
 40
1.0
 40
1.0
 40
1.0
 10
249.1098226267693
 20
199.5528458198869
 30
0.0
 10
249.1098226267693
 20
199.3728096361062
 30
0.0
 10
249.0987999468053
 20
199.1960473938138
 30
0.0
 10
249.0565317712306
 20
198.8486871034667
 30
0.0
 10
249.0252770145647
 20
198.6780913469303
 30
0.0
 10
248.9843351544675
 20
198.5105199397669
 30
0.0
  0
SPLINE
  5
188
330
1F
100
AcDbEntity
  8
1
  6
Continuous
 62
    40
370
    13
100
AcDbSpline
210
0.0
220
0.0
230
1.0
 70
     8
 71
     3
 72
    10
 73
     6
 74
     0
 42
0.000000001
 43
0.0000000001
 40
0.0
 40
0.0
 40
0.0
 40
0.0
 40
0.5
 40
0.5
 40
1.0
 40
1.0
 40
1.0
 40
1.0
 10
259.2733329127593
 20
198.5105199397671
 30
0.0
 10
259.2323910526621
 20
198.6780913469304
 30
0.0
 10
259.2011362959962
 20
198.8486871034668
 30
0.0
 10
259.1588681204215
 20
199.1960473938138
 30
0.0
 10
259.1478454404576
 20
199.3728096361062
 30
0.0
 10
259.1478454404576
 20
199.5528458198869
 30
0.0
  0
SPLINE
  5
189
330
1F
100
AcDbEntity
  8
1
  6
Continuous
 62
    40
370
    18
100
AcDbSpline
210
0.0
220
0.0
230
1.0
 70
     8
 71
     3
 72
    35
 73
    31
 74
     0
 42
0.000000001
 43
0.0000000001
 40
0.0
 40
0.0
 40
0.0
 40
0.0
 40
0.0625000000000002
 40
0.0625000000000002
 40
0.1250000000000003
 40
0.1250000000000003
 40
0.2499999999999984
 40
0.2499999999999984
 40
0.2812499999999984
 40
0.2812499999999984
 40
0.3124999999999985
 40
0.3749999999999977
 40
0.3749999999999977
 40
0.4999999999999965
 40
0.4999999999999965
 40
0.5312499999999957
 40
0.5312499999999957
 40
0.5624999999999947
 40
0.5624999999999947
 40
0.6249999999999956
 40
0.6249999999999956
 40
0.7499999999999971
 40
0.7499999999999971
 40
0.8124999999999988
 40
0.8124999999999988
 40
0.843749999999999
 40
0.843749999999999
 40
0.8749999999999991
 40
0.8749999999999991
 40
1.0
 40
1.0
 40
1.0
 40
1.0
 10
245.1288340336134
 20
197.1231880252101
 30
0.0
 10
245.220526987085
 20
197.1231880252101
 30
0.0
 10
245.3105476406082
 20
197.1273776854267
 30
0.0
 10
245.4875824622417
 20
197.1433895434538
 30
0.0
 10
245.5745947014481
 20
197.1552153147575
 30
0.0
 10
245.8313931344518
 20
197.2014301567776
 30
0.0
 10
245.996980398922
 20
197.2464944038471
 30
0.0
 10
246.1971064048315
 20
197.3195101889
 30
0.0
 10
246.2368475334565
 20
197.3349799828896
 30
0.0
 10
246.315207840832
 20
197.3674095158518
 30
0.0
 10
246.4311279827844
 20
197.4183027886931
 30
0.0
 10
246.5422741533962
 20
197.4757256855
 30
0.0
 10
246.7583057103146
 20
197.5988462685518
 30
0.0
 10
246.8940102932904
 20
197.6919258426015
 30
0.0
 10
247.0530407164447
 20
197.8212086962374
 30
0.0
 10
247.0843142456031
 20
197.8477147033209
 30
0.0
 10
247.1457811607175
 20
197.9020158156371
 30
0.0
 10
247.1759780750736
 20
197.9298184360136
 30
0.0
 10
247.2644262713532
 20
198.0146526758983
 30
0.0
 10
247.3207158421077
 20
198.0732616998763
 30
0.0
 10
247.4816440176402
 20
198.25491064059
 30
0.0
 10
247.5783731788328
 20
198.3837466545876
 30
0.0
 10
247.7073924818891
 20
198.5877692206897
 30
0.0
 10
247.7477120848089
 20
198.6575780959135
 30
0.0
 10
247.8040570738
 20
198.7649482219256
 30
0.0
 10
247.8221551330214
 20
198.8011941885723
 30
0.0
 10
247.8569225103883
 20
198.8745169269971
 30
0.0
 10
247.8735482666534
 20
198.9115004802709
 30
0.0
 10
247.952884220182
 20
199.0979917583658
 30
0.0
 10
248.0042714592653
 20
199.2521890886479
 30
0.0
 10
248.0431114226644
 20
199.4111576187905
 30
0.0
  0
SPLINE
  5
18A
330
1F
100
AcDbEntity
  8
1
  6
Continuous
 62
    40
370
    13
100
AcDbSpline
210
0.0
220
0.0
230
1.0
 70
     8
 71
     3
 72
    38
 73
    34
 74
     0
 42
0.000000001
 43
0.0000000001
 40
0.0
 40
0.0
 40
0.0
 40
0.0
 40
0.1250000000000023
 40
0.1250000000000023
 40
0.1562500000000031
 40
0.1562500000000031
 40
0.1875000000000039
 40
0.1875000000000039
 40
0.2500000000000043
 40
0.2500000000000043
 40
0.3750000000000063
 40
0.3750000000000063
 40
0.4375000000000075
 40
0.4375000000000075
 40
0.4531250000000078
 40
0.4531250000000078
 40
0.4687500000000081
 40
0.5000000000000083
 40
0.5000000000000083
 40
0.6250000000000074
 40
0.6250000000000074
 40
0.6875000000000066
 40
0.6875000000000066
 40
0.718750000000006
 40
0.718750000000006
 40
0.7500000000000052
 40
0.7500000000000052
 40
0.8125000000000039
 40
0.8750000000000026
 40
0.8750000000000026
 40
0.9375000000000013
 40
0.9375000000000013
 40
1.0
 40
1.0
 40
1.0
 40
1.0
 10
248.9843351544675
 20
198.5105199397669
 30
0.0
 10
248.924114326463
 20
198.280158800223
 30
0.0
 10
248.8443193446354
 20
198.0573938860691
 30
0.0
 10
248.7211215742936
 20
197.7885872558108
 30
0.0
 10
248.6952811621215
 20
197.7352693448311
 30
0.0
 10
248.6413375685667
 20
197.6298054450977
 30
0.0
 10
248.6133126311927
 20
197.5778075395733
 30
0.0
 10
248.5261533923056
 20
197.4239925489195
 30
0.0
 10
248.4639387898602
 20
197.3243511184453
 30
0.0
 10
248.2654067108648
 20
197.0340641135811
 30
0.0
 10
248.1172568803765
 20
196.8520109794602
 30
0.0
 10
247.8719810875096
 20
196.5967139673303
 30
0.0
 10
247.7863664122665
 20
196.5145899350185
 30
0.0
 10
247.6744858198945
 20
196.41580255729
 30
0.0
 10
247.6518462265549
 20
196.3962220888525
 30
0.0
 10
247.6062214872984
 20
196.3575732788576
 30
0.0
 10
247.5372421774793
 20
196.3003450237788
 30
0.0
 10
247.4666561504031
 20
196.245341201448
 30
0.0
 10
247.2278719370428
 20
196.0669100960027
 30
0.0
 10
247.0257138073155
 20
195.9398178301903
 30
0.0
 10
246.7064362109699
 20
195.7730242223192
 30
0.0
 10
246.5973250559594
 20
195.7214150825602
 30
0.0
 10
246.4295975787527
 20
195.6501754021674
 30
0.0
 10
246.3730107871197
 20
195.6274589331423
 30
0.0
 10
246.2584654669017
 20
195.5841323729354
 30
0.0
 10
246.2007297592319
 20
195.5636086829319
 30
0.0
 10
246.0265635336034
 20
195.5055877302183
 30
0.0
 10
245.7914418612815
 20
195.4375512009177
 30
0.0
 10
245.5506397134418
 20
195.3881666810977
 30
0.0
 10
245.3069743282862
 20
195.3482923142366
 30
0.0
 10
245.1837105786547
 20
195.3331087940045
 30
0.0
 10
244.9342039607606
 20
195.3126452030452
 30
0.0
 10
244.8079621672932
 20
195.3073625087544
 30
0.0
 10
244.6801144063641
 20
195.3073625087544
 30
0.0
  0
SPLINE
  5
18B
330
1F
100
AcDbEntity
  8
1
  6
Continuous
 62
    40
370
    18
100
AcDbSpline
210
0.0
220
0.0
230
1.0
 70
    24
 71
     3
 72
     8
 73
     4
 74
     0
 42
0.000000001
 43
0.0000000001
 40
0.0
 40
0.0
 40
0.0
 40
0.0
 40
1.0
 40
1.0
 40
1.0
 40
1.0
 10
247.1288340336134
 20
231.6474344086798
 30
0.0
 10
247.1288340336134
 20
231.6322067420132
 30
0.0
 10
247.1288340336134
 20
231.6169790753465
 30
0.0
 10
247.1288340336134
 20
231.6017514086798
 30
0.0
  0
SPLINE
  5
18C
330
1F
100
AcDbEntity
  8
1
  6
Continuous
 62
    40
370
    18
100
AcDbSpline
210
0.0
220
0.0
230
1.0
 70
    24
 71
     3
 72
     8
 73
     4
 74
     0
 42
0.000000001
 43
0.0000000001
 40
0.0
 40
0.0
 40
0.0
 40
0.0
 40
1.0
 40
1.0
 40
1.0
 40
1.0
 10
247.1288340336134
 20
231.6017514086798
 30
0.0
 10
247.1288340336134
 20
231.5717324348418
 30
0.0
 10
247.1288340336134
 20
231.5417134610038
 30
0.0
 10
247.1288340336134
 20
231.5116944871658
 30
0.0
  0
SPLINE
  5
18D
330
1F
100
AcDbEntity
  8
1
  6
Continuous
 62
    40
370
    18
100
AcDbSpline
210
0.0
220
0.0
230
1.0
 70
    24
 71
     3
 72
     8
 73
     4
 74
     0
 42
0.000000001
 43
0.0000000001
 40
0.0
 40
0.0
 40
0.0
 40
0.0
 40
1.0
 40
1.0
 40
1.0
 40
1.0
 10
261.1288340336134
 20
235.1997488187552
 30
0.0
 10
261.1288340336134
 20
235.2320911520885
 30
0.0
 10
261.1288340336134
 20
235.2644334854218
 30
0.0
 10
261.1288340336134
 20
235.2967758187552
 30
0.0
  0
SPLINE
  5
18E
330
1F
100
AcDbEntity
  8
1
  6
Continuous
 62
    40
370
    18
100
AcDbSpline
210
0.0
220
0.0
230
1.0
 70
    24
 71
     3
 72
    10
 73
     6
 74
     0
 42
0.000000001
 43
0.0000000001
 40
0.0
 40
0.0
 40
0.0
 40
0.0
 40
0.4357405217858068
 40
0.4357405217858068
 40
1.0
 40
1.0
 40
1.0
 40
1.0
 10
247.1288340336134
 20
234.9895008085245
 30
0.0
 10
247.1288340336134
 20
234.9416326517533
 30
0.0
 10
247.1288340336134
 20
234.8894748147683
 30
0.0
 10
247.1288340336134
 20
234.7598835340907
 30
0.0
 10
247.1288340336134
 20
234.6723741736481
 30
0.0
 10
247.1288340336134
 20
234.5690908085254
 30
0.0
  0
SPLINE
  5
18F
330
1F
100
AcDbEntity
  8
1
  6
Continuous
 62
    40
370
    18
100
AcDbSpline
210
0.0
220
0.0
230
1.0
 70
    24
 71
     3
 72
    10
 73
     6
 74
     0
 42
0.000000001
 43
0.0000000001
 40
0.0
 40
0.0
 40
0.0
 40
0.0
 40
0.8427784128653536
 40
0.8427784128653536
 40
1.0
 40
1.0
 40
1.0
 40
1.0
 10
261.1288340336134
 20
234.7999839036545
 30
0.0
 10
261.1288340336134
 20
235.0021778335957
 30
0.0
 10
261.1288340336134
 20
235.1223006999795
 30
0.0
 10
261.1288340336134
 20
235.1664926315576
 30
0.0
 10
261.1288340336134
 20
235.1699617528967
 30
0.0
 10
261.1288340336134
 20
235.1699508524403
 30
0.0
  0
SPLINE
  5
190
330
1F
100
AcDbEntity
  8
1
  6
Continuous
 62
    40
370
    18
100
AcDbSpline
210
0.0
220
0.0
230
1.0
 70
    24
 71
     3
 72
    10
 73
     6
 74
     0
 42
0.000000001
 43
0.0000000001
 40
0.0
 40
0.0
 40
0.0
 40
0.0
 40
0.6299957677846919
 40
0.6299957677846919
 40
1.0
 40
1.0
 40
1.0
 40
1.0
 10
261.1288340336134
 20
234.5523139578993
 30
0.0
 10
261.1288340336134
 20
234.6259659850418
 30
0.0
 10
261.1288340336134
 20
234.6801127404517
 30
0.0
 10
261.1288340336134
 20
234.7333779712247
 30
0.0
 10
261.1288340336134
 20
234.7432073177245
 30
0.0
 10
261.1288340336134
 20
234.7432499578991
 30
0.0
  0
SPLINE
  5
191
330
1F
100
AcDbEntity
  8
1
  6
Continuous
 62
    40
370
    18
100
AcDbSpline
210
0.0
220
0.0
230
1.0
 70
    24
 71
     3
 72
    10
 73
     6
 74
     0
 42
0.000000001
 43
0.0000000001
 40
0.0
 40
0.0
 40
0.0
 40
0.0
 40
0.3983299521770537
 40
0.3983299521770537
 40
1.0
 40
1.0
 40
1.0
 40
1.0
 10
247.1288340336134
 20
234.7470089786208
 30
0.0
 10
247.1288340336134
 20
234.7470015660132
 30
0.0
 10
247.1288340336134
 20
234.7365507227248
 30
0.0
 10
247.1288340336134
 20
234.6837210657494
 30
0.0
 10
247.1288340336135
 20
234.6289445135498
 30
0.0
 10
247.1288340336135
 20
234.5510559786209
 30
0.0
  0
SPLINE
  5
192
330
1F
100
AcDbEntity
  8
1
  6
Continuous
 62
    40
370
    18
100
AcDbSpline
210
0.0
220
0.0
230
1.0
 70
    24
 71
     3
 72
     8
 73
     4
 74
     0
 42
0.000000001
 43
0.0000000001
 40
0.0
 40
0.0
 40
0.0
 40
0.0
 40
1.0
 40
1.0
 40
1.0
 40
1.0
 10
261.1288340336134
 20
231.5116944871658
 30
0.0
 10
261.1288340336134
 20
232.4843893658081
 30
0.0
 10
261.1288340336134
 20
233.4570842444503
 30
0.0
 10
261.1288340336134
 20
234.4297791230926
 30
0.0
  0
SPLINE
  5
193
330
1F
100
AcDbEntity
  8
1
  6
Continuous
 62
    40
370
    18
100
AcDbSpline
210
0.0
220
0.0
230
1.0
 70
    24
 71
     3
 72
     8
 73
     4
 74
     0
 42
0.000000001
 43
0.0000000001
 40
0.0
 40
0.0
 40
0.0
 40
0.0
 40
1.0
 40
1.0
 40
1.0
 40
1.0
 10
261.1288340336134
 20
234.4297791230926
 30
0.0
 10
261.1288340336134
 20
234.4571088971909
 30
0.0
 10
261.1288340336134
 20
234.4844386712892
 30
0.0
 10
261.1288340336134
 20
234.5117684453876
 30
0.0
  0
SPLINE
  5
194
330
1F
100
AcDbEntity
  8
1
  6
Continuous
 62
    40
370
    18
100
AcDbSpline
210
0.0
220
0.0
230
1.0
 70
    24
 71
     3
 72
     8
 73
     4
 74
     0
 42
0.000000001
 43
0.0000000001
 40
0.0
 40
0.0
 40
0.0
 40
0.0
 40
1.0
 40
1.0
 40
1.0
 40
1.0
 10
247.1288340336134
 20
234.5127412326332
 30
0.0
 10
247.1288340336134
 20
234.485015410205
 30
0.0
 10
247.1288340336134
 20
234.4572895877768
 30
0.0
 10
247.1288340336134
 20
234.4295637653486
 30
0.0
  0
SPLINE
  5
195
330
1F
100
AcDbEntity
  8
1
  6
Continuous
 62
    40
370
    18
100
AcDbSpline
210
0.0
220
0.0
230
1.0
 70
    24
 71
     3
 72
    14
 73
    10
 74
     0
 42
0.000000001
 43
0.0000000001
 40
0.0
 40
0.0
 40
0.0
 40
0.0
 40
0.4302795695576833
 40
0.4302795695576833
 40
0.6628203663406994
 40
0.6628203663406994
 40
0.8953611631237158
 40
0.8953611631237158
 40
1.0
 40
1.0
 40
1.0
 40
1.0
 10
247.1288340336134
 20
234.4295637653486
 30
0.0
 10
247.1288340336134
 20
233.821688492659
 30
0.0
 10
247.1288340336134
 20
233.2138132199693
 30
0.0
 10
247.1288340336134
 20
232.2774171197598
 30
0.0
 10
247.1288340336134
 20
232.0534433997708
 30
0.0
 10
247.1288340336134
 20
231.8131002844801
 30
0.0
 10
247.1288340336134
 20
231.7310001389765
 30
0.0
 10
247.1288340336134
 20
231.6693196437975
 30
0.0
 10
247.1288340336135
 20
231.6597957916216
 30
0.0
 10
247.1288340336135
 20
231.6598860359751
 30
0.0
  0
SPLINE
  5
196
330
1F
100
AcDbEntity
  8
1
  6
Continuous
 62
    40
370
    18
100
AcDbSpline
210
0.0
220
0.0
230
1.0
 70
     8
 71
     3
 72
    33
 73
    29
 74
     0
 42
0.000000001
 43
0.0000000001
 40
0.0
 40
0.0
 40
0.0
 40
0.0
 40
0.1250000000000005
 40
0.1250000000000005
 40
0.250000000000001
 40
0.250000000000001
 40
0.3125000000000011
 40
0.3125000000000011
 40
0.3437500000000012
 40
0.3437500000000012
 40
0.3750000000000013
 40
0.3750000000000013
 40
0.5000000000000007
 40
0.5000000000000007
 40
0.6250000000000001
 40
0.6250000000000001
 40
0.6562500000000002
 40
0.6562500000000002
 40
0.6875000000000002
 40
0.7500000000000004
 40
0.7500000000000004
 40
0.8749999999999997
 40
0.8749999999999997
 40
0.9374999999999993
 40
0.9374999999999993
 40
0.9687499999999997
 40
0.9687499999999997
 40
1.0
 40
1.0
 40
1.0
 40
1.0
 10
260.2145566445624
 20
199.4111576187905
 30
0.0
 10
260.253461473751
 20
199.2519235987164
 30
0.0
 10
260.3047566577112
 20
199.0982734436824
 30
0.0
 10
260.4305103457473
 20
198.8022367770514
 30
0.0
 10
260.5049807464485
 20
198.6598532774813
 30
0.0
 10
260.6338342525714
 20
198.4554156316505
 30
0.0
 10
260.6796522966747
 20
198.3887987193508
 30
0.0
 10
260.7527293723203
 20
198.2913103000904
 30
0.0
 10
260.7778517886659
 20
198.2591765923722
 30
0.0
 10
260.8292790253425
 20
198.1960910111121
 30
0.0
 10
260.8556004589571
 20
198.1651128038773
 30
0.0
 10
260.9901994212011
 20
198.0130616517345
 30
0.0
 10
261.1074143481996
 20
197.9004716455065
 30
0.0
 10
261.3603197962432
 20
197.6944099288415
 30
0.0
 10
261.4960022465211
 20
197.6009275061424
 30
0.0
 10
261.6774355178268
 20
197.4973189387819
 30
0.0
 10
261.7143698478622
 20
197.4772375778646
 30
0.0
 10
261.7889686616128
 20
197.4386911473028
 30
0.0
 10
261.9020873208117
 20
197.3832182869335
 30
0.0
 10
262.0188124119816
 20
197.334819185854
 30
0.0
 10
262.2570262405404
 20
197.2476800159939
 30
0.0
 10
262.4221352271272
 20
197.2023892628959
 30
0.0
 10
262.6798533919153
 20
197.1556910097715
 30
0.0
 10
262.7674465041626
 20
197.1436809654726
 30
0.0
 10
262.901585429437
 20
197.1314704770002
 30
0.0
 10
262.946662259377
 20
197.1283805100817
 30
0.0
 10
263.0373115718186
 20
197.1242411688979
 30
0.0
 10
263.0829227347513
 20
197.1231880252101
 30
0.0
 10
263.1288340336134
 20
197.1231880252101
 30
0.0
  0
SPLINE
  5
197
330
1F
100
AcDbEntity
  8
1
  6
Continuous
 62
    40
370
    13
100
AcDbSpline
210
0.0
220
0.0
230
1.0
 70
     8
 71
     3
 72
    37
 73
    33
 74
     0
 42
0.000000001
 43
0.0000000001
 40
0.0
 40
0.0
 40
0.0
 40
0.0
 40
0.0624999999999994
 40
0.0624999999999994
 40
0.1249999999999988
 40
0.1249999999999988
 40
0.1874999999999982
 40
0.1874999999999982
 40
0.2499999999999976
 40
0.3124999999999963
 40
0.3124999999999963
 40
0.343749999999995
 40
0.3593749999999949
 40
0.3593749999999949
 40
0.3749999999999948
 40
0.3749999999999948
 40
0.4999999999999947
 40
0.4999999999999947
 40
0.6249999999999941
 40
0.6249999999999941
 40
0.6562499999999938
 40
0.6718749999999947
 40
0.6718749999999947
 40
0.6874999999999954
 40
0.6874999999999954
 40
0.7499999999999967
 40
0.7499999999999967
 40
0.874999999999998
 40
0.874999999999998
 40
0.937499999999999
 40
0.937499999999999
 40
1.0
 40
1.0
 40
1.0
 40
1.0
 10
263.5775536608627
 20
195.3073625087544
 30
0.0
 10
263.4494531397115
 20
195.3073625087544
 30
0.0
 10
263.3222764797561
 20
195.3126714532926
 30
0.0
 10
263.0699127838809
 20
195.3335131705128
 30
0.0
 10
262.9456822942577
 20
195.3489627640902
 30
0.0
 10
262.7008967191657
 20
195.3893266987078
 30
0.0
 10
262.5803426975479
 20
195.4142432301117
 30
0.0
 10
262.3428083836517
 20
195.4731891357213
 30
0.0
 10
262.1088489052615
 20
195.5412502569677
 30
0.0
 10
261.8820311165222
 20
195.6272031555385
 30
0.0
 10
261.7146596143684
 20
195.6983722015225
 30
0.0
 10
261.6316602890712
 20
195.7356345344831
 30
0.0
 10
261.5497116045054
 20
195.7754287578163
 30
0.0
 10
261.4953155995251
 20
195.8025237009635
 30
0.0
 10
261.4682088581728
 20
195.8163682120236
 30
0.0
 10
261.2260816179063
 20
195.9431273029761
 30
0.0
 10
261.0236125252031
 20
196.0711143313271
 30
0.0
 10
260.643845363422
 20
196.3557388119213
 30
0.0
 10
260.4665518127524
 20
196.5123851012523
 30
0.0
 10
260.2615177717205
 20
196.7259972455062
 30
0.0
 10
260.2012574407364
 20
196.7914224877381
 30
0.0
 10
260.1429150580854
 20
196.8588763613528
 30
0.0
 10
260.1044520321885
 20
196.9042990940613
 30
0.0
 10
260.0854273258136
 20
196.9272493964914
 30
0.0
 10
259.9917772201791
 20
197.0426648604958
 30
0.0
 10
259.9212670537838
 20
197.1374634584597
 30
0.0
 10
259.7227984460349
 20
197.4289219029422
 30
0.0
 10
259.6078359814132
 20
197.632604310097
 30
0.0
 10
259.4619343254307
 20
197.9516067206928
 30
0.0
 10
259.4177401443782
 20
198.0601973192588
 30
0.0
 10
259.3385327356097
 20
198.281920807406
 30
0.0
 10
259.3035181599545
 20
198.3950531125625
 30
0.0
 10
259.2733329127593
 20
198.5105199397671
 30
0.0
  0
SPLINE
  5
198
330
1F
100
AcDbEntity
  8
1
  6
Continuous
 62
    40
370
    18
100
AcDbSpline
210
0.0
220
0.0
230
1.0
 70
     8
 71
     3
 72
    20
 73
    16
 74
     0
 42
0.000000001
 43
0.0000000001
 40
0.0
 40
0.0
 40
0.0
 40
0.0
 40
0.0622416055527694
 40
0.1428894485175401
 40
0.2259991100873449
 40
0.3112736318464068
 40
0.3980999890167743
 40
0.4855577963685451
 40
0.5601265961097054
 40
0.6340377097053314
 40
0.7104624551938414
 40
0.792508148605745
 40
0.8732138195327434
 40
0.952774608006011
 40
1.0
 40
1.0
 40
1.0
 40
1.0
 10
139.4914622583921
 20
57.43773014470003
 30
0.0
 10
139.5437961383189
 20
57.54897469499414
 30
0.0
 10
139.6671815949385
 20
57.80128436078479
 30
0.0
 10
139.87629278112
 20
58.19037513112923
 30
0.0
 10
140.1166769385016
 20
58.60232418029938
 30
0.0
 10
140.3714779785255
 20
59.00266210660666
 30
0.0
 10
140.635938256995
 20
59.38343293287376
 30
0.0
 10
140.8913230148399
 20
59.71868470182172
 30
0.0
 10
141.1326846997647
 20
60.00785930798094
 30
0.0
 10
141.3560737047262
 20
60.25021168862227
 30
0.0
 10
141.5818149264443
 20
60.46607358609166
 30
0.0
 10
141.8032679776102
 20
60.64790551111781
 30
0.0
 10
142.0085468511907
 20
60.78681754132437
 30
0.0
 10
142.1657679640726
 20
60.87088696161184
 30
0.0
 10
142.2414997854165
 20
60.90001790646924
 30
0.0
 10
142.2674948392556
 20
60.90807082401096
 30
0.0
  0
SPLINE
  5
199
330
1F
100
AcDbEntity
  8
1
  6
Continuous
 62
    40
370
    18
100
AcDbSpline
210
0.0
220
0.0
230
1.0
 70
     8
 71
     3
 72
    20
 73
    16
 74
     0
 42
0.000000001
 43
0.0000000001
 40
0.0
 40
0.0
 40
0.0
 40
0.0
 40
0.0622416055527511
 40
0.1428894485175218
 40
0.2259991100873358
 40
0.3112736318463869
 40
0.3980999890167592
 40
0.485557796368521
 40
0.5601265961096787
 40
0.634037709705307
 40
0.7104624551938215
 40
0.7925081486057185
 40
0.8732138195327354
 40
0.9527746080059941
 40
1.0
 40
1.0
 40
1.0
 40
1.0
 10
100.1559116911877
 20
76.47744842672854
 30
0.0
 10
100.1035778112609
 20
76.36620387643447
 30
0.0
 10
99.98019235464137
 20
76.11389421064385
 30
0.0
 10
99.77108116845993
 20
75.72480344029941
 30
0.0
 10
99.5306970110783
 20
75.31285439112926
 30
0.0
 10
99.27589597105441
 20
74.91251646482198
 30
0.0
 10
99.01143569258491
 20
74.53174563855491
 30
0.0
 10
98.75605093474002
 20
74.19649386960694
 30
0.0
 10
98.51468924981526
 20
73.90731926344773
 30
0.0
 10
98.29130024485372
 20
73.66496688280638
 30
0.0
 10
98.06555902313562
 20
73.44910498533697
 30
0.0
 10
97.84410597196974
 20
73.26727306031081
 30
0.0
 10
97.63882709838926
 20
73.12836103010423
 30
0.0
 10
97.4816059855072
 20
73.04429160981675
 30
0.0
 10
97.4058741641634
 20
73.01516066495932
 30
0.0
 10
97.3798791103243
 20
73.00710774741762
 30
0.0
  0
SPLINE
  5
19A
330
1F
100
AcDbEntity
  8
1
  6
Continuous
 62
    40
370
    18
100
AcDbSpline
210
0.0
220
0.0
230
1.0
 70
     8
 71
     3
 72
    21
 73
    17
 74
     0
 42
0.000000001
 43
0.0000000001
 40
0.0
 40
0.0
 40
0.0
 40
0.0
 40
0.0043672981356606
 40
0.0867636228324659
 40
0.1675495864710923
 40
0.2485523411410254
 40
0.3305660064020851
 40
0.4137476854391797
 40
0.4881240547347189
 40
0.5673496265616887
 40
0.6539268818716347
 40
0.7416819631954144
 40
0.8290637073853526
 40
0.914767915207096
 40
0.9981187672152904
 40
1.0
 40
1.0
 40
1.0
 40
1.0
 10
142.2708501680932
 20
73.00540546731914
 30
0.0
 10
142.2685909023964
 20
73.00606895065346
 30
0.0
 10
142.2231755310366
 20
73.01981895232058
 30
0.0
 10
142.1008505120201
 20
73.07838839993019
 30
0.0
 10
141.9078039064202
 20
73.19413590014913
 30
0.0
 10
141.6896935044865
 20
73.35754202631155
 30
0.0
 10
141.4557830851168
 20
73.5656539350076
 30
0.0
 10
141.2201141521836
 20
73.80840539098516
 30
0.0
 10
140.9804506492248
 20
74.08698787677282
 30
0.0
 10
140.7340762384619
 20
74.400198979957
 30
0.0
 10
140.4747576285964
 20
74.7610199322089
 30
0.0
 10
140.2113621856614
 20
75.16188237258093
 30
0.0
 10
139.9556836117864
 20
75.585564906229
 30
0.0
 10
139.7170523591188
 20
76.02243110532564
 30
0.0
 10
139.5618469592862
 20
76.3215235424631
 30
0.0
 10
139.4925590810297
 20
76.4738720936779
 30
0.0
 10
139.4910319959557
 20
76.4772359828
 30
0.0
  0
SPLINE
  5
19B
330
1F
100
AcDbEntity
  8
1
  6
Continuous
 62
    40
370
    18
100
AcDbSpline
210
0.0
220
0.0
230
1.0
 70
     8
 71
     3
 72
    21
 73
    17
 74
     0
 42
0.000000001
 43
0.0000000001
 40
0.0
 40
0.0
 40
0.0
 40
0.0
 40
0.0043672981356512
 40
0.0867636228324485
 40
0.1675495864710723
 40
0.2485523411410007
 40
0.3305660064020537
 40
0.4137476854391391
 40
0.4881240547346746
 40
0.5673496265616451
 40
0.6539268818715898
 40
0.7416819631953685
 40
0.8290637073853101
 40
0.9147679152070534
 40
0.9981187672152507
 40
1.0
 40
1.0
 40
1.0
 40
1.0
 10
97.37652378148661
 20
60.90977310410933
 30
0.0
 10
97.37878304718348
 20
60.90910962077502
 30
0.0
 10
97.42419841854321
 20
60.89535961910792
 30
0.0
 10
97.54652343755973
 20
60.8367901714983
 30
0.0
 10
97.73957004315963
 20
60.72104267127938
 30
0.0
 10
97.95768044509326
 20
60.55763654511698
 30
0.0
 10
98.19159086446297
 20
60.34952463642095
 30
0.0
 10
98.42725979739619
 20
60.10677318044345
 30
0.0
 10
98.66692330035492
 20
59.82819069465582
 30
0.0
 10
98.9132977111179
 20
59.51497959147166
 30
0.0
 10
99.17261632098331
 20
59.15415863921978
 30
0.0
 10
99.43601176391834
 20
58.75329619884776
 30
0.0
 10
99.69169033779333
 20
58.32961366519969
 30
0.0
 10
99.930321590461
 20
57.89274746610312
 30
0.0
 10
100.0855269902936
 20
57.59365502896539
 30
0.0
 10
100.1548148685501
 20
57.44130647775066
 30
0.0
 10
100.1563419536241
 20
57.43794258862847
 30
0.0
  0
SPLINE
  5
19C
330
1F
100
AcDbEntity
  8
1
  6
Continuous
 62
    40
370
    13
100
AcDbSpline
210
0.0
220
0.0
230
1.0
 70
     8
 71
     3
 72
    10
 73
     6
 74
     0
 42
0.000000001
 43
0.0000000001
 40
0.0
 40
0.0
 40
0.0
 40
0.0
 40
0.5
 40
0.5
 40
1.0
 40
1.0
 40
1.0
 40
1.0
 10
97.18743286771648
 20
60.95758928571426
 30
0.0
 10
97.28367360925017
 20
60.95758928571426
 30
0.0
 10
97.38243934404649
 20
60.94988148796154
 30
0.0
 10
97.58463241615925
 20
60.9208452788115
 30
0.0
 10
97.68806242582343
 20
60.89950650085554
 30
0.0
 10
97.79373631711928
 20
60.87186667476529
 30
0.0
  0
SPLINE
  5
19D
330
1F
100
AcDbEntity
  8
1
  6
Continuous
 62
    40
370
    13
100
AcDbSpline
210
0.0
220
0.0
230
1.0
 70
     8
 71
     3
 72
    10
 73
     6
 74
     0
 42
0.000000001
 43
0.0000000001
 40
0.0
 40
0.0
 40
0.0
 40
0.0
 40
0.5
 40
0.5
 40
1.0
 40
1.0
 40
1.0
 40
1.0
 10
142.4599410818634
 20
72.95758928571422
 30
0.0
 10
142.3637003403297
 20
72.95758928571422
 30
0.0
 10
142.2649346055334
 20
72.96529708346694
 30
0.0
 10
142.0627415334206
 20
72.99433329261697
 30
0.0
 10
141.9593115237564
 20
73.01567207057293
 30
0.0
 10
141.8536376324606
 20
73.04331189666318
 30
0.0
  0
SPLINE
  5
19E
330
1F
100
AcDbEntity
  8
1
  6
Continuous
 62
    40
370
    13
100
AcDbSpline
210
0.0
220
0.0
230
1.0
 70
     8
 71
     3
 72
    10
 73
     6
 74
     0
 42
0.000000001
 43
0.0000000001
 40
0.0
 40
0.0
 40
0.0
 40
0.0
 40
0.5
 40
0.5
 40
1.0
 40
1.0
 40
1.0
 40
1.0
 10
141.8536376324604
 20
60.87186667476526
 30
0.0
 10
141.9593115237563
 20
60.89950650085552
 30
0.0
 10
142.0627415334205
 20
60.92084527881149
 30
0.0
 10
142.2649346055333
 20
60.94988148796153
 30
0.0
 10
142.3637003403297
 20
60.95758928571426
 30
0.0
 10
142.4599410818634
 20
60.95758928571426
 30
0.0
  0
SPLINE
  5
19F
330
1F
100
AcDbEntity
  8
1
  6
Continuous
 62
    40
370
    13
100
AcDbSpline
210
0.0
220
0.0
230
1.0
 70
     8
 71
     3
 72
    10
 73
     6
 74
     0
 42
0.000000001
 43
0.0000000001
 40
0.0
 40
0.0
 40
0.0
 40
0.0
 40
0.5
 40
0.5
 40
1.0
 40
1.0
 40
1.0
 40
1.0
 10
97.7937363171194
 20
73.04331189666333
 30
0.0
 10
97.68806242582352
 20
73.01567207057306
 30
0.0
 10
97.58463241615931
 20
72.99433329261709
 30
0.0
 10
97.38243934404653
 20
72.96529708346705
 30
0.0
 10
97.2836736092502
 20
72.95758928571432
 30
0.0
 10
97.1874328677165
 20
72.95758928571432
 30
0.0
  0
SPLINE
  5
1A0
330
1F
100
AcDbEntity
  8
1
  6
Continuous
 62
    40
370
    18
100
AcDbSpline
210
0.0
220
0.0
230
1.0
 70
     8
 71
     3
 72
    10
 73
     6
 74
     0
 42
0.000000001
 43
0.0000000001
 40
0.0
 40
0.0
 40
0.0
 40
0.0
 40
0.3803735385029144
 40
0.3803735385029144
 40
1.0
 40
1.0
 40
1.0
 40
1.0
 10
111.4336423597505
 20
60.95713851637912
 30
0.0
 10
111.481346730614
 20
60.89043754100826
 30
0.0
 10
111.5300729555705
 20
60.82398648453107
 30
0.0
 10
111.6606495170802
 20
60.65035306546723
 30
0.0
 10
111.7440695066167
 20
60.54384204020778
 30
0.0
 10
111.8290453765082
 20
60.43961462907583
 30
0.0
  0
SPLINE
  5
1A1
330
1F
100
AcDbEntity
  8
1
  6
Continuous
 62
    40
370
    18
100
AcDbSpline
210
0.0
220
0.0
230
1.0
 70
     8
 71
     3
 72
    10
 73
     6
 74
     0
 42
0.000000001
 43
0.0000000001
 40
0.0
 40
0.0
 40
0.0
 40
0.0
 40
0.3786886315676967
 40
0.3786886315676967
 40
1.0
 40
1.0
 40
1.0
 40
1.0
 10
128.2127111155687
 20
72.95946664165402
 30
0.0
 10
128.1653323882644
 20
73.02568852941852
 30
0.0
 10
128.1169468891833
 20
73.09166295571916
 30
0.0
 10
127.9867244324996
 20
73.26482550596127
 30
0.0
 10
127.9033044429632
 20
73.37133653122072
 30
0.0
 10
127.8183285730716
 20
73.47556394235268
 30
0.0
  0
SPLINE
  5
1A2
330
1F
100
AcDbEntity
  8
1
  6
Continuous
 62
    40
370
    18
100
AcDbSpline
210
0.0
220
0.0
230
1.0
 70
     8
 71
     3
 72
    26
 73
    22
 74
     0
 42
0.000000001
 43
0.0000000001
 40
0.0
 40
0.0
 40
0.0
 40
0.0
 40
0.1249999999999977
 40
0.1249999999999977
 40
0.1874999999999966
 40
0.2187499999999967
 40
0.2187499999999967
 40
0.2499999999999969
 40
0.2499999999999969
 40
0.4999999999999987
 40
0.4999999999999987
 40
0.7500000000000003
 40
0.7500000000000003
 40
0.8125000000000009
 40
0.8125000000000009
 40
0.8750000000000013
 40
0.9375000000000019
 40
0.9687500000000022
 40
0.9843750000000011
 40
0.9843750000000011
 40
1.0
 40
1.0
 40
1.0
 40
1.0
 10
127.8183285730782
 20
73.47556394235156
 30
0.0
 10
127.8406424866694
 20
73.59040616167249
 30
0.0
 10
127.8672772798611
 20
73.70450924919332
 30
0.0
 10
127.9136764977939
 20
73.87456104865353
 30
0.0
 10
127.9384894145669
 20
73.95931097515285
 30
0.0
 10
127.9657291925258
 20
74.04364576157818
 30
0.0
 10
127.984429982007
 20
74.09977641949082
 30
0.0
 10
127.9940605919279
 20
74.12782271073449
 30
0.0
 10
128.0829286745674
 20
74.37912321075741
 30
0.0
 10
128.1773048839342
 20
74.5943163408965
 30
0.0
 10
128.3942667216105
 20
75.0096921138192
 30
0.0
 10
128.5169005389362
 20
75.20984911479076
 30
0.0
 10
128.6867286030047
 20
75.45124652107307
 30
0.0
 10
128.721555552442
 20
75.49913205071572
 30
0.0
 10
128.7926379936293
 20
75.59379146061866
 30
0.0
 10
128.8651218771839
 20
75.68731072344842
 30
0.0
 10
128.9590850372218
 20
75.80147764375756
 30
0.0
 10
129.0265407168168
 20
75.88002652567182
 30
0.0
 10
129.0558012189638
 20
75.91340483611795
 30
0.0
 10
129.0753851357387
 20
75.93559446840472
 30
0.0
 10
129.0852553809197
 20
75.94668421063074
 30
0.0
 10
129.0949931961502
 20
75.95758928571425
 30
0.0
  0
SPLINE
  5
1A3
330
1F
100
AcDbEntity
  8
1
  6
Continuous
 62
    40
370
    18
100
AcDbSpline
210
0.0
220
0.0
230
1.0
 70
     8
 71
     3
 72
    10
 73
     6
 74
     0
 42
0.000000001
 43
0.0000000001
 40
0.0
 40
0.0
 40
0.0
 40
0.0
 40
0.6225684533951101
 40
0.6225684533951101
 40
1.0
 40
1.0
 40
1.0
 40
1.0
 10
127.8183285730718
 20
60.43961462907606
 30
0.0
 10
127.903248418437
 20
60.54377332315514
 30
0.0
 10
127.9865639206485
 20
60.65015090090336
 30
0.0
 10
128.1162799231459
 20
60.8226219209144
 30
0.0
 10
128.1643034166781
 20
60.88808447636706
 30
0.0
 10
128.2113167574786
 20
60.95376344853495
 30
0.0
  0
SPLINE
  5
1A4
330
1F
100
AcDbEntity
  8
1
  6
Continuous
 62
    40
370
    18
100
AcDbSpline
210
0.0
220
0.0
230
1.0
 70
     8
 71
     3
 72
    10
 73
     6
 74
     0
 42
0.000000001
 43
0.0000000001
 40
0.0
 40
0.0
 40
0.0
 40
0.0
 40
0.6225684533951008
 40
0.6225684533951008
 40
1.0
 40
1.0
 40
1.0
 40
1.0
 10
111.829045376508
 20
73.47556394235248
 30
0.0
 10
111.7441255311429
 20
73.3714052482734
 30
0.0
 10
111.6608100289314
 20
73.26502767052519
 30
0.0
 10
111.5310940264339
 20
73.09255665051414
 30
0.0
 10
111.4830705329017
 20
73.02709409506149
 30
0.0
 10
111.4360571921012
 20
72.9614151228936
 30
0.0
  0
SPLINE
  5
1A5
330
1F
100
AcDbEntity
  8
1
  6
Continuous
 62
    40
370
    18
100
AcDbSpline
210
0.0
220
0.0
230
1.0
 70
     8
 71
     3
 72
    26
 73
    22
 74
     0
 42
0.000000001
 43
0.0000000001
 40
0.0
 40
0.0
 40
0.0
 40
0.0
 40
0.0156250000000011
 40
0.0156250000000011
 40
0.0312500000000022
 40
0.062500000000002
 40
0.1250000000000017
 40
0.1875000000000013
 40
0.1875000000000013
 40
0.250000000000001
 40
0.250000000000001
 40
0.5000000000000012
 40
0.5000000000000012
 40
0.7500000000000014
 40
0.7500000000000014
 40
0.7812500000000011
 40
0.7812500000000011
 40
0.8125000000000007
 40
0.8750000000000004
 40
0.8750000000000004
 40
1.0
 40
1.0
 40
1.0
 40
1.0
 10
110.5523807534297
 20
75.95758928571429
 30
0.0
 10
110.5621185686607
 20
75.94668421063125
 30
0.0
 10
110.5719888138413
 20
75.93559446840491
 30
0.0
 10
110.5915727306161
 20
75.91340483611813
 30
0.0
 10
110.620833232763
 20
75.8800265256721
 30
0.0
 10
110.6882889123579
 20
75.80147764375786
 30
0.0
 10
110.7822520723957
 20
75.68731072344893
 30
0.0
 10
110.8547359559501
 20
75.59379146061931
 30
0.0
 10
110.9258183971373
 20
75.49913205071653
 30
0.0
 10
110.9606453465746
 20
75.45124652107394
 30
0.0
 10
111.1304734106428
 20
75.20984911479204
 30
0.0
 10
111.2531072279685
 20
75.00969211382085
 30
0.0
 10
111.4700690656445
 20
74.59431634089887
 30
0.0
 10
111.5644452750113
 20
74.37912321076018
 30
0.0
 10
111.6533133576508
 20
74.12782271073775
 30
0.0
 10
111.6629439675718
 20
74.09977641949413
 30
0.0
 10
111.681644757053
 20
74.04364576158157
 30
0.0
 10
111.7088845350119
 20
73.95931097515638
 30
0.0
 10
111.7336974517849
 20
73.87456104865723
 30
0.0
 10
111.7800966697178
 20
73.7045092491973
 30
0.0
 10
111.8067314629095
 20
73.59040616167667
 30
0.0
 10
111.8290453765008
 20
73.47556394235593
 30
0.0
  0
SPLINE
  5
1A6
330
1F
100
AcDbEntity
  8
1
  6
Continuous
 62
    40
370
    13
100
AcDbSpline
210
0.0
220
0.0
230
1.0
 70
     8
 71
     3
 72
    35
 73
    31
 74
     0
 42
0.000000001
 43
0.0000000001
 40
0.0
 40
0.0
 40
0.0
 40
0.0
 40
0.0625000000000002
 40
0.0625000000000002
 40
0.1250000000000003
 40
0.1250000000000003
 40
0.2499999999999984
 40
0.2499999999999984
 40
0.2812499999999984
 40
0.2812499999999984
 40
0.3124999999999985
 40
0.3749999999999977
 40
0.3749999999999977
 40
0.4999999999999965
 40
0.4999999999999965
 40
0.5312499999999957
 40
0.5312499999999957
 40
0.5624999999999947
 40
0.5624999999999947
 40
0.6249999999999956
 40
0.6249999999999956
 40
0.7499999999999971
 40
0.7499999999999971
 40
0.8124999999999988
 40
0.8124999999999988
 40
0.843749999999999
 40
0.843749999999999
 40
0.8749999999999991
 40
0.8749999999999991
 40
1.0
 40
1.0
 40
1.0
 40
1.0
 10
101.229912847202
 20
75.95758928571432
 30
0.0
 10
101.1677774675951
 20
75.86589633224268
 30
0.0
 10
101.1045189474
 20
75.77587567871947
 30
0.0
 10
100.9760071958466
 20
75.59884085708596
 30
0.0
 10
100.9107523616378
 20
75.51182861787956
 30
0.0
 10
100.712170475071
 20
75.25503018487589
 30
0.0
 10
100.5760613191397
 20
75.08944292040566
 30
0.0
 10
100.4011977429344
 20
74.8893169144962
 30
0.0
 10
100.365928942758
 20
74.84957578587122
 30
0.0
 10
100.295282859229
 20
74.77121547849572
 30
0.0
 10
100.1891008331742
 20
74.65529533654326
 30
0.0
 10
100.0822331565208
 20
74.54414916593149
 30
0.0
 10
99.86742423679613
 20
74.3281176090131
 30
0.0
 10
99.72279672945314
 20
74.1924130260373
 30
0.0
 10
99.53954360995334
 20
74.03338260288301
 30
0.0
 10
99.50276875684065
 20
74.00210907372455
 30
0.0
 10
99.42895009365964
 20
73.94064215861015
 30
0.0
 10
99.3918989111361
 20
73.91044524425406
 30
0.0
 10
99.2809465181882
 20
73.82199704797448
 30
0.0
 10
99.2070350182421
 20
73.76570747722003
 30
0.0
 10
98.98523440653953
 20
73.60477930168753
 30
0.0
 10
98.83727685655609
 20
73.50805014049489
 30
0.0
 10
98.61432283199964
 20
73.37903083743859
 30
0.0
 10
98.5398359312712
 20
73.33871123451875
 30
0.0
 10
98.42774569669237
 20
73.28236624552767
 30
0.0
 10
98.39030933179224
 20
73.26426818630628
 30
0.0
 10
98.31535330865745
 20
73.22950080893938
 30
0.0
 10
98.27792863426684
 20
73.21287505267433
 30
0.0
 10
98.09103245334894
 20
73.13353909914571
 30
0.0
 10
97.94223110347444
 20
73.08215186006235
 30
0.0
 10
97.7937363171194
 20
73.04331189666333
 30
0.0
  0
SPLINE
  5
1A7
330
1F
100
AcDbEntity
  8
1
  6
Continuous
 62
    40
370
    13
100
AcDbSpline
210
0.0
220
0.0
230
1.0
 70
     8
 71
     3
 72
    35
 73
    31
 74
     0
 42
0.000000001
 43
0.0000000001
 40
0.0
 40
0.0
 40
0.0
 40
0.0
 40
0.0624999999999977
 40
0.0624999999999977
 40
0.1249999999999954
 40
0.1249999999999954
 40
0.2499999999999898
 40
0.2499999999999898
 40
0.2812499999999877
 40
0.2812499999999877
 40
0.3124999999999856
 40
0.374999999999983
 40
0.374999999999983
 40
0.4999999999999782
 40
0.4999999999999782
 40
0.5312499999999781
 40
0.5312499999999781
 40
0.5624999999999779
 40
0.5624999999999779
 40
0.6249999999999802
 40
0.6249999999999802
 40
0.7499999999999843
 40
0.7499999999999843
 40
0.8124999999999872
 40
0.8124999999999872
 40
0.8437499999999893
 40
0.8437499999999893
 40
0.8749999999999913
 40
0.8749999999999913
 40
1.0
 40
1.0
 40
1.0
 40
1.0
 10
138.4174611023779
 20
57.95758928571426
 30
0.0
 10
138.4795964819847
 20
58.04928223918589
 30
0.0
 10
138.5428550021799
 20
58.1393028927091
 30
0.0
 10
138.6713667537332
 20
58.31633771434261
 30
0.0
 10
138.7366215879421
 20
58.40334995354902
 30
0.0
 10
138.9352034745088
 20
58.66014838655268
 30
0.0
 10
139.0713126304402
 20
58.82573565102292
 30
0.0
 10
139.2461762066454
 20
59.02586165693237
 30
0.0
 10
139.2814450068219
 20
59.06560278555734
 30
0.0
 10
139.3520910903509
 20
59.14396309293285
 30
0.0
 10
139.4582731164057
 20
59.25988323488532
 30
0.0
 10
139.5651407930591
 20
59.37102940549708
 30
0.0
 10
139.7799497127837
 20
59.58706096241546
 30
0.0
 10
139.9245772201267
 20
59.72276554539127
 30
0.0
 10
140.1078303396265
 20
59.88179596854556
 30
0.0
 10
140.1446051927392
 20
59.91306949770402
 30
0.0
 10
140.2184238559202
 20
59.97453641281843
 30
0.0
 10
140.2554750384438
 20
60.00473332717451
 30
0.0
 10
140.3664274313917
 20
60.0931815234541
 30
0.0
 10
140.4403389313377
 20
60.14947109420854
 30
0.0
 10
140.6621395430403
 20
60.31039926974105
 30
0.0
 10
140.8100970930238
 20
60.40712843093369
 30
0.0
 10
141.0330511175802
 20
60.53614773398998
 30
0.0
 10
141.1075380183087
 20
60.57646733690981
 30
0.0
 10
141.2196282528875
 20
60.6328123259009
 30
0.0
 10
141.2570646177876
 20
60.65091038512229
 30
0.0
 10
141.3320206409224
 20
60.68567776248921
 30
0.0
 10
141.369445315313
 20
60.70230351875425
 30
0.0
 10
141.5563414962309
 20
60.78163947228288
 30
0.0
 10
141.7051428461054
 20
60.83302671136623
 30
0.0
 10
141.8536376324605
 20
60.87186667476526
 30
0.0
  0
SPLINE
  5
1A8
330
1F
100
AcDbEntity
  8
1
  6
Continuous
 62
    40
370
    18
100
AcDbSpline
210
0.0
220
0.0
230
1.0
 70
     8
 71
     3
 72
    26
 73
    22
 74
     0
 42
0.000000001
 43
0.0000000001
 40
0.0
 40
0.0
 40
0.0
 40
0.0
 40
0.1250000000000016
 40
0.1250000000000016
 40
0.1875000000000024
 40
0.2187500000000021
 40
0.2187500000000021
 40
0.2500000000000017
 40
0.2500000000000017
 40
0.4999999999999998
 40
0.4999999999999998
 40
0.7499999999999987
 40
0.7499999999999987
 40
0.8124999999999984
 40
0.8124999999999984
 40
0.8749999999999981
 40
0.9374999999999978
 40
0.9687499999999976
 40
0.9843749999999988
 40
0.9843749999999988
 40
1.0
 40
1.0
 40
1.0
 40
1.0
 10
111.8290453765017
 20
60.43961462907696
 30
0.0
 10
111.8067314629104
 20
60.32477240975602
 30
0.0
 10
111.7800966697187
 20
60.21066932223519
 30
0.0
 10
111.733697451786
 20
60.04061752277498
 30
0.0
 10
111.708884535013
 20
59.95586759627567
 30
0.0
 10
111.6816447570541
 20
59.87153280985033
 30
0.0
 10
111.6629439675729
 20
59.81540215193769
 30
0.0
 10
111.6533133576519
 20
59.78735586069402
 30
0.0
 10
111.5644452750124
 20
59.5360553606711
 30
0.0
 10
111.4700690656456
 20
59.32086223053201
 30
0.0
 10
111.2531072279694
 20
58.9054864576093
 30
0.0
 10
111.1304734106436
 20
58.70532945663775
 30
0.0
 10
110.9606453465752
 20
58.46393205035544
 30
0.0
 10
110.9258183971379
 20
58.41604652071278
 30
0.0
 10
110.8547359559505
 20
58.32138711080984
 30
0.0
 10
110.782252072396
 20
58.22786784798008
 30
0.0
 10
110.6882889123581
 20
58.11370092767095
 30
0.0
 10
110.620833232763
 20
58.03515204575667
 30
0.0
 10
110.5915727306161
 20
58.00177373531054
 30
0.0
 10
110.5719888138412
 20
57.97958410302377
 30
0.0
 10
110.5621185686602
 20
57.96849436079777
 30
0.0
 10
110.5523807534297
 20
57.95758928571426
 30
0.0
  0
SPLINE
  5
1A9
330
1F
100
AcDbEntity
  8
1
  6
Continuous
 62
    40
370
    18
100
AcDbSpline
210
0.0
220
0.0
230
1.0
 70
     8
 71
     3
 72
    26
 73
    22
 74
     0
 42
0.000000001
 43
0.0000000001
 40
0.0
 40
0.0
 40
0.0
 40
0.0
 40
0.0156250000000002
 40
0.0156250000000002
 40
0.0312500000000003
 40
0.062500000000001
 40
0.1250000000000021
 40
0.1875000000000033
 40
0.1875000000000033
 40
0.2500000000000044
 40
0.2500000000000044
 40
0.5000000000000038
 40
0.5000000000000038
 40
0.750000000000003
 40
0.750000000000003
 40
0.7812500000000024
 40
0.7812500000000024
 40
0.8125000000000018
 40
0.8750000000000012
 40
0.8750000000000012
 40
1.0
 40
1.0
 40
1.0
 40
1.0
 10
129.0949931961502
 20
57.95758928571426
 30
0.0
 10
129.0852553809192
 20
57.96849436079731
 30
0.0
 10
129.0753851357386
 20
57.97958410302363
 30
0.0
 10
129.0558012189638
 20
58.00177373531041
 30
0.0
 10
129.0265407168168
 20
58.03515204575646
 30
0.0
 10
128.959085037222
 20
58.11370092767068
 30
0.0
 10
128.8651218771842
 20
58.22786784797961
 30
0.0
 10
128.7926379936298
 20
58.32138711080923
 30
0.0
 10
128.7215555524425
 20
58.41604652071202
 30
0.0
 10
128.6867286030052
 20
58.46393205035459
 30
0.0
 10
128.516900538937
 20
58.70532945663649
 30
0.0
 10
128.3942667216114
 20
58.90548645760771
 30
0.0
 10
128.1773048839353
 20
59.32086223052967
 30
0.0
 10
128.0829286745686
 20
59.53605536066836
 30
0.0
 10
127.994060591929
 20
59.78735586069079
 30
0.0
 10
127.9844299820081
 20
59.81540215193441
 30
0.0
 10
127.9657291925269
 20
59.87153280984697
 30
0.0
 10
127.9384894145679
 20
59.95586759627216
 30
0.0
 10
127.9136764977949
 20
60.04061752277132
 30
0.0
 10
127.8672772798621
 20
60.21066932223124
 30
0.0
 10
127.8406424866703
 20
60.32477240975187
 30
0.0
 10
127.818328573079
 20
60.43961462907262
 30
0.0
  0
SPLINE
  5
1AA
330
1F
100
AcDbEntity
  8
1
  6
Continuous
 62
    40
370
    13
100
AcDbSpline
210
0.0
220
0.0
230
1.0
 70
     8
 71
     3
 72
    33
 73
    29
 74
     0
 42
0.000000001
 43
0.0000000001
 40
0.0
 40
0.0
 40
0.0
 40
0.0
 40
0.1250000000000039
 40
0.1250000000000039
 40
0.2500000000000078
 40
0.2500000000000078
 40
0.3125000000000098
 40
0.3125000000000098
 40
0.3437500000000101
 40
0.3437500000000101
 40
0.3750000000000104
 40
0.3750000000000104
 40
0.5000000000000094
 40
0.5000000000000094
 40
0.6250000000000084
 40
0.6250000000000084
 40
0.6562500000000082
 40
0.6562500000000082
 40
0.687500000000008
 40
0.7500000000000071
 40
0.7500000000000071
 40
0.8750000000000031
 40
0.8750000000000031
 40
0.937500000000001
 40
0.937500000000001
 40
0.9687500000000006
 40
0.9687500000000006
 40
1.0
 40
1.0
 40
1.0
 40
1.0
 10
141.8536376324606
 20
73.0433118966632
 30
0.0
 10
141.7048948481489
 20
73.08221672585178
 30
0.0
 10
141.5565863379112
 20
73.13351190981192
 30
0.0
 10
141.2599814712921
 20
73.25926559784814
 30
0.0
 10
141.1116878097084
 20
73.33373599854927
 30
0.0
 10
140.8884815556037
 20
73.46258950467217
 30
0.0
 10
140.8139501885396
 20
73.50840754877547
 30
0.0
 10
140.7018435435411
 20
73.58148462442112
 30
0.0
 10
140.6643697045002
 20
73.60660704076673
 30
0.0
 10
140.5897028083894
 20
73.65803427744336
 30
0.0
 10
140.5524810494832
 20
73.6843557110579
 30
0.0
 10
140.3668784131867
 20
73.81895467330192
 30
0.0
 10
140.2200100553928
 20
73.93616960030039
 30
0.0
 10
139.9282671002964
 20
74.18907504834395
 30
0.0
 10
139.7833933225211
 20
74.32475749862185
 30
0.0
 10
139.6028597119015
 20
74.5061907699276
 30
0.0
 10
139.5667315636556
 20
74.54312509996302
 30
0.0
 10
139.4949716522692
 20
74.6177239137136
 30
0.0
 10
139.3879485566814
 20
74.73084257291251
 30
0.0
 10
139.282698451465
 20
74.84756766408235
 30
0.0
 10
139.074427544619
 20
75.08578149264123
 30
0.0
 10
138.9385183654226
 20
75.25089047922795
 30
0.0
 10
138.7390564901555
 20
75.50860864401612
 30
0.0
 10
138.6733104339899
 20
75.59620175626337
 30
0.0
 10
138.5758958550706
 20
75.73034068153783
 30
0.0
 10
138.5436964476322
 20
75.77541751147783
 30
0.0
 10
138.4800490066707
 20
75.86606682391937
 30
0.0
 10
138.4485727186477
 20
75.91167798685213
 30
0.0
 10
138.417461102378
 20
75.9575892857142
 30
0.0
  0
SPLINE
  5
1AB
330
1F
100
AcDbEntity
  8
1
  6
Continuous
 62
    40
370
    13
100
AcDbSpline
210
0.0
220
0.0
230
1.0
 70
     8
 71
     3
 72
    33
 73
    29
 74
     0
 42
0.000000001
 43
0.0000000001
 40
0.0
 40
0.0
 40
0.0
 40
0.0
 40
0.1250000000000005
 40
0.1250000000000005
 40
0.250000000000001
 40
0.250000000000001
 40
0.3125000000000011
 40
0.3125000000000011
 40
0.3437500000000012
 40
0.3437500000000012
 40
0.3750000000000013
 40
0.3750000000000013
 40
0.5000000000000007
 40
0.5000000000000007
 40
0.6250000000000001
 40
0.6250000000000001
 40
0.6562500000000002
 40
0.6562500000000002
 40
0.6875000000000002
 40
0.7500000000000004
 40
0.7500000000000004
 40
0.8749999999999997
 40
0.8749999999999997
 40
0.9374999999999993
 40
0.9374999999999993
 40
0.9687499999999997
 40
0.9687499999999997
 40
1.0
 40
1.0
 40
1.0
 40
1.0
 10
97.79373631711923
 20
60.87186667476527
 30
0.0
 10
97.94247910143098
 20
60.8329618455767
 30
0.0
 10
98.09078761166865
 20
60.78166666161656
 30
0.0
 10
98.38739247828772
 20
60.65591297358033
 30
0.0
 10
98.53568613987146
 20
60.58144257287921
 30
0.0
 10
98.7588923939762
 20
60.45258906675631
 30
0.0
 10
98.83342376104028
 20
60.40677102265302
 30
0.0
 10
98.94553040603873
 20
60.33369394700735
 30
0.0
 10
98.98300424507964
 20
60.30857153066175
 30
0.0
 10
99.05767114119043
 20
60.25714429398512
 30
0.0
 10
99.09489290009664
 20
60.23082286037057
 30
0.0
 10
99.28049553639322
 20
60.09622389812657
 30
0.0
 10
99.4273638941871
 20
59.9790089711281
 30
0.0
 10
99.71910684928349
 20
59.72610352308453
 30
0.0
 10
99.86398062705875
 20
59.59042107280664
 30
0.0
 10
100.0445142376784
 20
59.40898780150088
 30
0.0
 10
100.0806423859243
 20
59.37205347146547
 30
0.0
 10
100.1524022973107
 20
59.29745465771487
 30
0.0
 10
100.2594253928985
 20
59.18433599851597
 30
0.0
 10
100.3646754981149
 20
59.06761090734614
 30
0.0
 10
100.5729464049608
 20
58.82939707878725
 30
0.0
 10
100.7088555841573
 20
58.66428809220053
 30
0.0
 10
100.9083174594244
 20
58.40656992741236
 30
0.0
 10
100.97406351559
 20
58.31897681516512
 30
0.0
 10
101.0714780945093
 20
58.18483788989066
 30
0.0
 10
101.1036775019476
 20
58.13976105995065
 30
0.0
 10
101.1673249429092
 20
58.04911174750912
 30
0.0
 10
101.1988012309322
 20
58.00350058457635
 30
0.0
 10
101.2299128472019
 20
57.95758928571428
 30
0.0
  0
SPLINE
  5
1AC
330
1F
100
AcDbEntity
  8
1
  6
Continuous
 62
    40
370
    18
100
AcDbSpline
210
0.0
220
0.0
230
1.0
 70
    24
 71
     3
 72
     8
 73
     4
 74
     0
 42
0.000000001
 43
0.0000000001
 40
0.0
 40
0.0
 40
0.0
 40
0.0
 40
1.0
 40
1.0
 40
1.0
 40
1.0
 10
116.0329177286847
 20
73.95758928571428
 30
0.0
 10
116.0330114404946
 20
73.95758928571428
 30
0.0
 10
116.0230434551378
 20
73.95758928571428
 30
0.0
 10
116.0030460378996
 20
73.95758928571428
 30
0.0
  0
SPLINE
  5
1AD
330
1F
100
AcDbEntity
  8
1
  6
Continuous
 62
    40
370
    18
100
AcDbSpline
210
0.0
220
0.0
230
1.0
 70
    24
 71
     3
 72
     8
 73
     4
 74
     0
 42
0.000000001
 43
0.0000000001
 40
0.0
 40
0.0
 40
0.0
 40
0.0
 40
1.0
 40
1.0
 40
1.0
 40
1.0
 10
123.6443279116803
 20
59.95758928571426
 30
0.0
 10
123.7082139116803
 20
59.95758928571426
 30
0.0
 10
123.7720999116803
 20
59.95758928571426
 30
0.0
 10
123.8359859116803
 20
59.95758928571426
 30
0.0
  0
SPLINE
  5
1AE
330
1F
100
AcDbEntity
  8
1
  6
Continuous
 62
    40
370
    18
100
AcDbSpline
210
0.0
220
0.0
230
1.0
 70
    24
 71
     3
 72
     8
 73
     4
 74
     0
 42
0.000000001
 43
0.0000000001
 40
0.0
 40
0.0
 40
0.0
 40
0.0
 40
1.0
 40
1.0
 40
1.0
 40
1.0
 10
123.6144562208951
 20
59.95758928571426
 30
0.0
 10
123.6143625090853
 20
59.95758928571426
 30
0.0
 10
123.624330494442
 20
59.95758928571426
 30
0.0
 10
123.6443279116803
 20
59.95758928571426
 30
0.0
  0
SPLINE
  5
1AF
330
1F
100
AcDbEntity
  8
1
  6
Continuous
 62
    40
370
    18
100
AcDbSpline
210
0.0
220
0.0
230
1.0
 70
    24
 71
     3
 72
     8
 73
     4
 74
     0
 42
0.000000001
 43
0.0000000001
 40
0.0
 40
0.0
 40
0.0
 40
0.0
 40
1.0
 40
1.0
 40
1.0
 40
1.0
 10
116.0030460378996
 20
73.95758928571428
 30
0.0
 10
115.9481747045662
 20
73.95758928571428
 30
0.0
 10
115.8933033712329
 20
73.95758928571428
 30
0.0
 10
115.8384320378996
 20
73.95758928571428
 30
0.0
  0
SPLINE
  5
1B0
330
1F
100
AcDbEntity
  8
1
  6
Continuous
 62
    40
370
    18
100
AcDbSpline
210
0.0
220
0.0
230
1.0
 70
    24
 71
     3
 72
     8
 73
     4
 74
     0
 42
0.000000001
 43
0.0000000001
 40
0.0
 40
0.0
 40
0.0
 40
0.0
 40
1.0
 40
1.0
 40
1.0
 40
1.0
 10
113.6181008709492
 20
59.95758928571426
 30
0.0
 10
113.7285191731662
 20
59.95758928571426
 30
0.0
 10
113.8389374753832
 20
59.95758928571426
 30
0.0
 10
113.9493557776002
 20
59.95758928571426
 30
0.0
  0
SPLINE
  5
1B1
330
1F
100
AcDbEntity
  8
1
  6
Continuous
 62
    40
370
    18
100
AcDbSpline
210
0.0
220
0.0
230
1.0
 70
    24
 71
     3
 72
     8
 73
     4
 74
     0
 42
0.000000001
 43
0.0000000001
 40
0.0
 40
0.0
 40
0.0
 40
0.0
 40
1.0
 40
1.0
 40
1.0
 40
1.0
 10
126.0292730786307
 20
73.95758928571425
 30
0.0
 10
125.9188547764137
 20
73.95758928571425
 30
0.0
 10
125.8084364741967
 20
73.95758928571425
 30
0.0
 10
125.6980181719797
 20
73.95758928571425
 30
0.0
  0
SPLINE
  5
1B2
330
1F
100
AcDbEntity
  8
1
  6
Continuous
 62
    40
370
    18
100
AcDbSpline
210
0.0
220
0.0
230
1.0
 70
    24
 71
     3
 72
     8
 73
     4
 74
     0
 42
0.000000001
 43
0.0000000001
 40
0.0
 40
0.0
 40
0.0
 40
0.0
 40
1.0
 40
1.0
 40
1.0
 40
1.0
 10
125.6980181719797
 20
73.95758928571425
 30
0.0
 10
125.6753995650634
 20
73.95758928571425
 30
0.0
 10
125.6527809581472
 20
73.95758928571425
 30
0.0
 10
125.630162351231
 20
73.95758928571425
 30
0.0
  0
SPLINE
  5
1B3
330
1F
100
AcDbEntity
  8
1
  6
Continuous
 62
    40
370
    18
100
AcDbSpline
210
0.0
220
0.0
230
1.0
 70
    24
 71
     3
 72
     8
 73
     4
 74
     0
 42
0.000000001
 43
0.0000000001
 40
0.0
 40
0.0
 40
0.0
 40
0.0
 40
1.0
 40
1.0
 40
1.0
 40
1.0
 10
113.9493557776002
 20
59.95758928571426
 30
0.0
 10
113.9719743845164
 20
59.95758928571426
 30
0.0
 10
113.9945929914327
 20
59.95758928571426
 30
0.0
 10
114.0172115983489
 20
59.95758928571426
 30
0.0
  0
SPLINE
  5
1B4
330
1F
100
AcDbEntity
  8
1
  6
Continuous
 62
    40
370
    18
100
AcDbSpline
210
0.0
220
0.0
230
1.0
 70
    24
 71
     3
 72
    18
 73
    14
 74
     0
 42
0.000000001
 43
0.0000000001
 40
0.0
 40
0.0
 40
0.0
 40
0.0
 40
0.1494873821849882
 40
0.1494873821849882
 40
0.2980884710209464
 40
0.2980884710209464
 40
0.4916715110721165
 40
0.4916715110721165
 40
0.6845254147161413
 40
0.6845254147161413
 40
0.8766580697370493
 40
0.8766580697370493
 40
1.0
 40
1.0
 40
1.0
 40
1.0
 10
125.630162351231
 20
73.95758928571425
 30
0.0
 10
125.578638529636
 20
73.95758928571425
 30
0.0
 10
125.5098643532809
 20
73.95758928571425
 30
0.0
 10
125.3398368670651
 20
73.95758928571425
 30
0.0
 10
125.2269602013623
 20
73.95758928571425
 30
0.0
 10
124.9040435189062
 20
73.95758928571425
 30
0.0
 10
124.7302105358099
 20
73.95758928571425
 30
0.0
 10
124.4046283864812
 20
73.95758928571425
 30
0.0
 10
124.2661964551867
 20
73.95758928571425
 30
0.0
 10
124.0403982115724
 20
73.95758928571425
 30
0.0
 10
123.9578612914766
 20
73.95758928571425
 30
0.0
 10
123.8761153411017
 20
73.95758928571425
 30
0.0
 10
123.8601461959138
 20
73.95758928571425
 30
0.0
 10
123.8602077052405
 20
73.95758928571423
 30
0.0
  0
SPLINE
  5
1B5
330
1F
100
AcDbEntity
  8
1
  6
Continuous
 62
    40
370
    18
100
AcDbSpline
210
0.0
220
0.0
230
1.0
 70
    24
 71
     3
 72
    18
 73
    14
 74
     0
 42
0.000000001
 43
0.0000000001
 40
0.0
 40
0.0
 40
0.0
 40
0.0
 40
0.1494873831814731
 40
0.1494873831814731
 40
0.2980884730080082
 40
0.2980884730080082
 40
0.4916715143496055
 40
0.4916715143496055
 40
0.684525419279197
 40
0.684525419279197
 40
0.8766580755808638
 40
0.8766580755808638
 40
1.0
 40
1.0
 40
1.0
 40
1.0
 10
114.0172115983489
 20
59.95758928571426
 30
0.0
 10
114.0687354199439
 20
59.95758928571426
 30
0.0
 10
114.1375095962989
 20
59.95758928571426
 30
0.0
 10
114.3075370825147
 20
59.95758928571426
 30
0.0
 10
114.4204137482175
 20
59.95758928571426
 30
0.0
 10
114.7433304306737
 20
59.95758928571426
 30
0.0
 10
114.91716341377
 20
59.95758928571426
 30
0.0
 10
115.2427455630987
 20
59.95758928571426
 30
0.0
 10
115.3811774943932
 20
59.95758928571426
 30
0.0
 10
115.6069757380075
 20
59.95758928571426
 30
0.0
 10
115.6895126581032
 20
59.95758928571426
 30
0.0
 10
115.7712586067508
 20
59.95758928571426
 30
0.0
 10
115.78722775194
 20
59.95758928571426
 30
0.0
 10
115.7871662443494
 20
59.95758928571426
 30
0.0
  0
SPLINE
  5
1B6
330
1F
100
AcDbEntity
  8
1
  6
Continuous
 62
    40
370
    18
100
AcDbSpline
210
0.0
220
0.0
230
1.0
 70
    24
 71
     3
 72
    10
 73
     6
 74
     0
 42
0.000000001
 43
0.0000000001
 40
0.0
 40
0.0
 40
0.0
 40
0.0
 40
0.3735120609351557
 40
0.3735120609351557
 40
1.0
 40
1.0
 40
1.0
 40
1.0
 10
115.8113862692161
 20
73.95758928571426
 30
0.0
 10
115.8114719602494
 20
73.95758928571426
 30
0.0
 10
115.7970932653268
 20
73.95758928571428
 30
0.0
 10
115.7197436685328
 20
73.95758928571428
 30
0.0
 10
115.6398158532421
 20
73.95758928571428
 30
0.0
 10
115.5282490306998
 20
73.95758928571428
 30
0.0
  0
SPLINE
  5
1B7
330
1F
100
AcDbEntity
  8
1
  6
Continuous
 62
    40
370
    18
100
AcDbSpline
210
0.0
220
0.0
230
1.0
 70
    24
 71
     3
 72
     8
 73
     4
 74
     0
 42
0.000000001
 43
0.0000000001
 40
0.0
 40
0.0
 40
0.0
 40
0.0
 40
1.0
 40
1.0
 40
1.0
 40
1.0
 10
114.5265380306983
 20
73.95758928571426
 30
0.0
 10
114.4744098385437
 20
73.95758928571426
 30
0.0
 10
114.4254210030042
 20
73.95758928571426
 30
0.0
 10
114.3795660306983
 20
73.95758928571428
 30
0.0
  0
SPLINE
  5
1B8
330
1F
100
AcDbEntity
  8
1
  6
Continuous
 62
    40
370
    18
100
AcDbSpline
210
0.0
220
0.0
230
1.0
 70
    24
 71
     3
 72
    10
 73
     6
 74
     0
 42
0.000000001
 43
0.0000000001
 40
0.0
 40
0.0
 40
0.0
 40
0.0
 40
0.373512061983211
 40
0.373512061983211
 40
1.0
 40
1.0
 40
1.0
 40
1.0
 10
123.8359876803649
 20
59.95758928571427
 30
0.0
 10
123.8359019892018
 20
59.95758928571427
 30
0.0
 10
123.8502806841238
 20
59.95758928571426
 30
0.0
 10
123.9276302810468
 20
59.95758928571426
 30
0.0
 10
124.0075580963371
 20
59.95758928571426
 30
0.0
 10
124.1191249188789
 20
59.95758928571426
 30
0.0
  0
SPLINE
  5
1B9
330
1F
100
AcDbEntity
  8
1
  6
Continuous
 62
    40
370
    18
100
AcDbSpline
210
0.0
220
0.0
230
1.0
 70
    24
 71
     3
 72
     8
 73
     4
 74
     0
 42
0.000000001
 43
0.0000000001
 40
0.0
 40
0.0
 40
0.0
 40
0.0
 40
1.0
 40
1.0
 40
1.0
 40
1.0
 10
125.1208359188826
 20
59.95758928571426
 30
0.0
 10
125.1729641110373
 20
59.95758928571426
 30
0.0
 10
125.2219529465768
 20
59.95758928571426
 30
0.0
 10
125.2678079188826
 20
59.95758928571426
 30
0.0
  0
SPLINE
  5
1BA
330
1F
100
AcDbEntity
  8
1
  6
Continuous
 62
    40
370
    18
100
AcDbSpline
210
0.0
220
0.0
230
1.0
 70
    24
 71
     3
 72
    12
 73
     8
 74
     0
 42
0.000000001
 43
0.0000000001
 40
0.0
 40
0.0
 40
0.0
 40
0.0
 40
0.2138254357418364
 40
0.2138254357418364
 40
0.9582256304060612
 40
0.9582256304060612
 40
1.0
 40
1.0
 40
1.0
 40
1.0
 10
118.1882224582192
 20
73.95758928571426
 30
0.0
 10
118.1881562561683
 20
73.95758928571426
 30
0.0
 10
118.1861550135522
 20
73.95758928571426
 30
0.0
 10
118.168496848803
 20
73.95758928571426
 30
0.0
 10
118.1310943869435
 20
73.95758928571426
 30
0.0
 10
118.0676068939803
 20
73.95758928571426
 30
0.0
 10
118.0641942604672
 20
73.95758928571426
 30
0.0
 10
118.0607424582192
 20
73.95758928571426
 30
0.0
  0
SPLINE
  5
1BB
330
1F
100
AcDbEntity
  8
1
  6
Continuous
 62
    40
370
    18
100
AcDbSpline
210
0.0
220
0.0
230
1.0
 70
    24
 71
     3
 72
    12
 73
     8
 74
     0
 42
0.000000001
 43
0.0000000001
 40
0.0
 40
0.0
 40
0.0
 40
0.0
 40
0.2138254479080966
 40
0.2138254479080966
 40
0.9582256311079312
 40
0.9582256311079312
 40
1.0
 40
1.0
 40
1.0
 40
1.0
 10
121.4591514913463
 20
59.95758928571426
 30
0.0
 10
121.4592176931221
 20
59.95758928571426
 30
0.0
 10
121.4612189357427
 20
59.95758928571426
 30
0.0
 10
121.4788771007769
 20
59.95758928571426
 30
0.0
 10
121.5162795626364
 20
59.95758928571426
 30
0.0
 10
121.5797670555949
 20
59.95758928571426
 30
0.0
 10
121.5831796891032
 20
59.95758928571426
 30
0.0
 10
121.5866314913461
 20
59.95758928571426
 30
0.0
  0
SPLINE
  5
1BC
330
1F
100
AcDbEntity
  8
1
  6
Continuous
 62
    40
370
    18
100
AcDbSpline
210
0.0
220
0.0
230
1.0
 70
    24
 71
     3
 72
     8
 73
     4
 74
     0
 42
0.000000001
 43
0.0000000001
 40
0.0
 40
0.0
 40
0.0
 40
0.0
 40
1.0
 40
1.0
 40
1.0
 40
1.0
 10
119.1688563139364
 20
59.95758928571426
 30
0.0
 10
119.1743247131534
 20
59.95758928571426
 30
0.0
 10
119.2126024374851
 20
59.95758928571426
 30
0.0
 10
119.2829085214655
 20
59.95758928571426
 30
0.0
  0
SPLINE
  5
1BD
330
1F
100
AcDbEntity
  8
1
  6
Continuous
 62
    40
370
    18
100
AcDbSpline
210
0.0
220
0.0
230
1.0
 70
    24
 71
     3
 72
     8
 73
     4
 74
     0
 42
0.000000001
 43
0.0000000001
 40
0.0
 40
0.0
 40
0.0
 40
0.0
 40
1.0
 40
1.0
 40
1.0
 40
1.0
 10
120.4785176356435
 20
73.95758928571426
 30
0.0
 10
120.4730492364265
 20
73.95758928571426
 30
0.0
 10
120.4347715120947
 20
73.95758928571426
 30
0.0
 10
120.3644654281144
 20
73.95758928571426
 30
0.0
  0
SPLINE
  5
1BE
330
1F
100
AcDbEntity
  8
1
  6
Continuous
 62
    40
370
    18
100
AcDbSpline
210
0.0
220
0.0
230
1.0
 70
    24
 71
     3
 72
     8
 73
     4
 74
     0
 42
0.000000001
 43
0.0000000001
 40
0.0
 40
0.0
 40
0.0
 40
0.0
 40
1.0
 40
1.0
 40
1.0
 40
1.0
 10
117.9910071130565
 20
73.95758928571426
 30
0.0
 10
117.9377312556936
 20
73.95758928571426
 30
0.0
 10
117.8674256309119
 20
73.95758928571426
 30
0.0
 10
117.7793159225955
 20
73.95758928571426
 30
0.0
  0
SPLINE
  5
1BF
330
1F
100
AcDbEntity
  8
1
  6
Continuous
 62
    40
370
    18
100
AcDbSpline
210
0.0
220
0.0
230
1.0
 70
    24
 71
     3
 72
     8
 73
     4
 74
     0
 42
0.000000001
 43
0.0000000001
 40
0.0
 40
0.0
 40
0.0
 40
0.0
 40
1.0
 40
1.0
 40
1.0
 40
1.0
 10
121.6563668365234
 20
59.95758928571426
 30
0.0
 10
121.7096426938863
 20
59.95758928571426
 30
0.0
 10
121.7799483186679
 20
59.95758928571426
 30
0.0
 10
121.8680580269844
 20
59.95758928571426
 30
0.0
  0
SPLINE
  5
1C0
330
1F
100
AcDbEntity
  8
1
  6
Continuous
 62
    40
370
    18
100
AcDbSpline
210
0.0
220
0.0
230
1.0
 70
    24
 71
     3
 72
    16
 73
    12
 74
     0
 42
0.000000001
 43
0.0000000001
 40
0.0
 40
0.0
 40
0.0
 40
0.0
 40
0.2017302927074907
 40
0.2017302927074907
 40
0.4021551280973131
 40
0.4021551280973131
 40
0.6017551699258634
 40
0.6017551699258634
 40
0.8001995450780502
 40
0.8001995450780502
 40
1.0
 40
1.0
 40
1.0
 40
1.0
 10
117.7793159225955
 20
73.95758928571426
 30
0.0
 10
117.6918811260947
 20
73.95758928571426
 30
0.0
 10
117.5724848290829
 20
73.95758928571426
 30
0.0
 10
117.2736377932823
 20
73.95758928571426
 30
0.0
 10
117.1036836991567
 20
73.95758928571426
 30
0.0
 10
116.728140382879
 20
73.95758928571428
 30
0.0
 10
116.5792571488465
 20
73.95758928571428
 30
0.0
 10
116.3558457836799
 20
73.95758928571428
 30
0.0
 10
116.2770800723749
 20
73.95758928571428
 30
0.0
 10
116.1839074576769
 20
73.95758928571428
 30
0.0
 10
116.1563439864984
 20
73.95758928571428
 30
0.0
 10
116.1477845028975
 20
73.95758928571428
 30
0.0
  0
SPLINE
  5
1C1
330
1F
100
AcDbEntity
  8
1
  6
Continuous
 62
    40
370
    18
100
AcDbSpline
210
0.0
220
0.0
230
1.0
 70
    24
 71
     3
 72
    16
 73
    12
 74
     0
 42
0.000000001
 43
0.0000000001
 40
0.0
 40
0.0
 40
0.0
 40
0.0
 40
0.2017302927074907
 40
0.2017302927074907
 40
0.4021551280973131
 40
0.4021551280973131
 40
0.6017551699258634
 40
0.6017551699258634
 40
0.8001995450780502
 40
0.8001995450780502
 40
1.0
 40
1.0
 40
1.0
 40
1.0
 10
121.8680580269844
 20
59.95758928571426
 30
0.0
 10
121.9554928234851
 20
59.95758928571426
 30
0.0
 10
122.0748891204969
 20
59.95758928571426
 30
0.0
 10
122.3737361562976
 20
59.95758928571426
 30
0.0
 10
122.5436902504231
 20
59.95758928571426
 30
0.0
 10
122.9192335667008
 20
59.95758928571426
 30
0.0
 10
123.0681168007334
 20
59.95758928571426
 30
0.0
 10
123.2915281658999
 20
59.95758928571426
 30
0.0
 10
123.370293877205
 20
59.95758928571426
 30
0.0
 10
123.463466491903
 20
59.95758928571426
 30
0.0
 10
123.4910299630815
 20
59.95758928571426
 30
0.0
 10
123.4995894466823
 20
59.95758928571426
 30
0.0
  0
SPLINE
  5
1C2
330
1F
100
AcDbEntity
  8
1
  6
Continuous
 62
    40
370
    18
100
AcDbSpline
210
0.0
220
0.0
230
1.0
 70
    24
 71
     3
 72
    16
 73
    12
 74
     0
 42
0.000000001
 43
0.0000000001
 40
0.0
 40
0.0
 40
0.0
 40
0.0
 40
0.2061935903060325
 40
0.2061935903060325
 40
0.4715614285483507
 40
0.4715614285483507
 40
0.7281062951867048
 40
0.7281062951867048
 40
0.984651161825054
 40
0.984651161825054
 40
1.0
 40
1.0
 40
1.0
 40
1.0
 10
116.0619254071488
 20
59.95758928571426
 30
0.0
 10
116.0618370862022
 20
59.95758928571426
 30
0.0
 10
116.1255130316459
 20
59.95758928571427
 30
0.0
 10
116.4162424898034
 20
59.95758928571426
 30
0.0
 10
116.6501526347091
 20
59.95758928571426
 30
0.0
 10
117.2456161790693
 20
59.95758928571426
 30
0.0
 10
117.498464902957
 20
59.95758928571426
 30
0.0
 10
117.9213652683206
 20
59.95758928571426
 30
0.0
 10
118.050218594164
 20
59.95758928571426
 30
0.0
 10
118.0994529474397
 20
59.95758928571426
 30
0.0
 10
118.1029469133195
 20
59.95758928571426
 30
0.0
 10
118.1070562236176
 20
59.95758928571426
 30
0.0
  0
SPLINE
  5
1C3
330
1F
100
AcDbEntity
  8
1
  6
Continuous
 62
    40
370
    18
100
AcDbSpline
210
0.0
220
0.0
230
1.0
 70
    24
 71
     3
 72
    16
 73
    12
 74
     0
 42
0.000000001
 43
0.0000000001
 40
0.0
 40
0.0
 40
0.0
 40
0.0
 40
0.2061936294311225
 40
0.2061936294311225
 40
0.4715614545940042
 40
0.4715614545940042
 40
0.7281063085877878
 40
0.7281063085877878
 40
0.9846511625815667
 40
0.9846511625815667
 40
1.0
 40
1.0
 40
1.0
 40
1.0
 10
123.5854485423677
 20
73.95758928571425
 30
0.0
 10
123.5855368938195
 20
73.95758928571425
 30
0.0
 10
123.5218609483212
 20
73.95758928571425
 30
0.0
 10
123.2311314597765
 20
73.95758928571425
 30
0.0
 10
122.9972213148707
 20
73.95758928571425
 30
0.0
 10
122.4017577705105
 20
73.95758928571426
 30
0.0
 10
122.1489090466229
 20
73.95758928571426
 30
0.0
 10
121.7260086812592
 20
73.95758928571426
 30
0.0
 10
121.5971553554159
 20
73.95758928571426
 30
0.0
 10
121.5479210021402
 20
73.95758928571426
 30
0.0
 10
121.5444270362603
 20
73.95758928571426
 30
0.0
 10
121.5403177259623
 20
73.95758928571426
 30
0.0
  0
SPLINE
  5
1C4
330
1F
100
AcDbEntity
  8
1
  6
Continuous
 62
    40
370
    18
100
AcDbSpline
210
0.0
220
0.0
230
1.0
 70
    24
 71
     3
 72
     8
 73
     4
 74
     0
 42
0.000000001
 43
0.0000000001
 40
0.0
 40
0.0
 40
0.0
 40
0.0
 40
1.0
 40
1.0
 40
1.0
 40
1.0
 10
118.679958447724
 20
73.95758928571426
 30
0.0
 10
118.5583992629822
 20
73.95758928571426
 30
0.0
 10
118.4368400782403
 20
73.95758928571426
 30
0.0
 10
118.3152808934985
 20
73.95758928571426
 30
0.0
  0
SPLINE
  5
1C5
330
1F
100
AcDbEntity
  8
1
  6
Continuous
 62
    40
370
    18
100
AcDbSpline
210
0.0
220
0.0
230
1.0
 70
    24
 71
     3
 72
    10
 73
     6
 74
     0
 42
0.000000001
 43
0.0000000001
 40
0.0
 40
0.0
 40
0.0
 40
0.0
 40
0.2504519224872667
 40
0.2504519224872667
 40
1.0
 40
1.0
 40
1.0
 40
1.0
 10
119.1853527628628
 20
73.95758928571426
 30
0.0
 10
119.1431714716426
 20
73.95758928571426
 30
0.0
 10
119.1009901804224
 20
73.95758928571426
 30
0.0
 10
118.9325694679707
 20
73.95758928571426
 30
0.0
 10
118.8062419282168
 20
73.95758928571426
 30
0.0
 10
118.679958447724
 20
73.95758928571426
 30
0.0
  0
SPLINE
  5
1C6
330
1F
100
AcDbEntity
  8
1
  6
Continuous
 62
    40
370
    18
100
AcDbSpline
210
0.0
220
0.0
230
1.0
 70
    24
 71
     3
 72
     8
 73
     4
 74
     0
 42
0.000000001
 43
0.0000000001
 40
0.0
 40
0.0
 40
0.0
 40
0.0
 40
1.0
 40
1.0
 40
1.0
 40
1.0
 10
120.9674155018558
 20
59.95758928571426
 30
0.0
 10
121.0889746865977
 20
59.95758928571426
 30
0.0
 10
121.2105338713395
 20
59.95758928571426
 30
0.0
 10
121.3320930560814
 20
59.95758928571426
 30
0.0
  0
SPLINE
  5
1C7
330
1F
100
AcDbEntity
  8
1
  6
Continuous
 62
    40
370
    18
100
AcDbSpline
210
0.0
220
0.0
230
1.0
 70
    24
 71
     3
 72
    10
 73
     6
 74
     0
 42
0.000000001
 43
0.0000000001
 40
0.0
 40
0.0
 40
0.0
 40
0.0
 40
0.2504519224872667
 40
0.2504519224872667
 40
1.0
 40
1.0
 40
1.0
 40
1.0
 10
120.4620211867171
 20
59.95758928571426
 30
0.0
 10
120.5042024779372
 20
59.95758928571426
 30
0.0
 10
120.5463837691574
 20
59.95758928571426
 30
0.0
 10
120.7148044816091
 20
59.95758928571426
 30
0.0
 10
120.8411320213631
 20
59.95758928571426
 30
0.0
 10
120.9674155018558
 20
59.95758928571426
 30
0.0
  0
SPLINE
  5
1C8
330
1F
100
AcDbEntity
  8
1
  6
Continuous
 62
    40
370
    18
100
AcDbSpline
210
0.0
220
0.0
230
1.0
 70
    24
 71
     3
 72
    10
 73
     6
 74
     0
 42
0.000000001
 43
0.0000000001
 40
0.0
 40
0.0
 40
0.0
 40
0.0
 40
0.7520822760251137
 40
0.7520822760251137
 40
1.0
 40
1.0
 40
1.0
 40
1.0
 10
120.0201909338138
 20
59.95758928571426
 30
0.0
 10
120.1305182291099
 20
59.95758928571426
 30
0.0
 10
120.2408455244059
 20
59.95758928571426
 30
0.0
 10
120.3875413033294
 20
59.95758928571426
 30
0.0
 10
120.4250717310454
 20
59.95758928571426
 30
0.0
 10
120.4620211867171
 20
59.95758928571426
 30
0.0
  0
SPLINE
  5
1C9
330
1F
100
AcDbEntity
  8
1
  6
Continuous
 62
    40
370
    18
100
AcDbSpline
210
0.0
220
0.0
230
1.0
 70
    24
 71
     3
 72
    10
 73
     6
 74
     0
 42
0.000000001
 43
0.0000000001
 40
0.0
 40
0.0
 40
0.0
 40
0.0
 40
0.7520822760251137
 40
0.7520822760251137
 40
1.0
 40
1.0
 40
1.0
 40
1.0
 10
119.6271830157661
 20
73.95758928571426
 30
0.0
 10
119.51685572047
 20
73.95758928571426
 30
0.0
 10
119.4065284251739
 20
73.95758928571426
 30
0.0
 10
119.2598326462504
 20
73.95758928571426
 30
0.0
 10
119.2223022185345
 20
73.95758928571426
 30
0.0
 10
119.1853527628628
 20
73.95758928571426
 30
0.0
  0
SPLINE
  5
1CA
330
1F
100
AcDbEntity
  8
1
  6
Continuous
 62
    40
370
    18
100
AcDbSpline
210
0.0
220
0.0
230
1.0
 70
    24
 71
     3
 72
     8
 73
     4
 74
     0
 42
0.000000001
 43
0.0000000001
 40
0.0
 40
0.0
 40
0.0
 40
0.0
 40
1.0
 40
1.0
 40
1.0
 40
1.0
 10
120.012163817122
 20
73.95758928571426
 30
0.0
 10
119.8838368833367
 20
73.95758928571426
 30
0.0
 10
119.7555099495514
 20
73.95758928571426
 30
0.0
 10
119.6271830157661
 20
73.95758928571426
 30
0.0
  0
SPLINE
  5
1CB
330
1F
100
AcDbEntity
  8
1
  6
Continuous
 62
    40
370
    18
100
AcDbSpline
210
0.0
220
0.0
230
1.0
 70
    24
 71
     3
 72
     8
 73
     4
 74
     0
 42
0.000000001
 43
0.0000000001
 40
0.0
 40
0.0
 40
0.0
 40
0.0
 40
1.0
 40
1.0
 40
1.0
 40
1.0
 10
120.3644654281144
 20
73.95758928571426
 30
0.0
 10
120.2470315577836
 20
73.95758928571426
 30
0.0
 10
120.1295976874528
 20
73.95758928571426
 30
0.0
 10
120.012163817122
 20
73.95758928571426
 30
0.0
  0
SPLINE
  5
1CC
330
1F
100
AcDbEntity
  8
1
  6
Continuous
 62
    40
370
    18
100
AcDbSpline
210
0.0
220
0.0
230
1.0
 70
    24
 71
     3
 72
     8
 73
     4
 74
     0
 42
0.000000001
 43
0.0000000001
 40
0.0
 40
0.0
 40
0.0
 40
0.0
 40
1.0
 40
1.0
 40
1.0
 40
1.0
 10
119.6352101324579
 20
59.95758928571426
 30
0.0
 10
119.7635370662432
 20
59.95758928571426
 30
0.0
 10
119.8918640000285
 20
59.95758928571426
 30
0.0
 10
120.0201909338138
 20
59.95758928571426
 30
0.0
  0
SPLINE
  5
1CD
330
1F
100
AcDbEntity
  8
1
  6
Continuous
 62
    40
370
    18
100
AcDbSpline
210
0.0
220
0.0
230
1.0
 70
    24
 71
     3
 72
     8
 73
     4
 74
     0
 42
0.000000001
 43
0.0000000001
 40
0.0
 40
0.0
 40
0.0
 40
0.0
 40
1.0
 40
1.0
 40
1.0
 40
1.0
 10
119.2829085214655
 20
59.95758928571426
 30
0.0
 10
119.4003423917963
 20
59.95758928571426
 30
0.0
 10
119.5177762621271
 20
59.95758928571426
 30
0.0
 10
119.6352101324579
 20
59.95758928571426
 30
0.0
  0
SPLINE
  5
1CE
330
1F
100
AcDbEntity
  8
1
  6
Continuous
 62
    40
370
    18
100
AcDbSpline
210
0.0
220
0.0
230
1.0
 70
    24
 71
     3
 72
    10
 73
     6
 74
     0
 42
0.000000001
 43
0.0000000001
 40
0.0
 40
0.0
 40
0.0
 40
0.0
 40
0.7289096076549586
 40
0.7289096076549586
 40
1.0
 40
1.0
 40
1.0
 40
1.0
 10
118.6856428820547
 20
59.95758928571426
 30
0.0
 10
118.8029984146898
 20
59.95758928571426
 30
0.0
 10
118.9203539473249
 20
59.95758928571426
 30
0.0
 10
119.0813554369509
 20
59.95758928571426
 30
0.0
 10
119.1251407026109
 20
59.95758928571426
 30
0.0
 10
119.1688563139364
 20
59.95758928571426
 30
0.0
  0
SPLINE
  5
1CF
330
1F
100
AcDbEntity
  8
1
  6
Continuous
 62
    40
370
    18
100
AcDbSpline
210
0.0
220
0.0
230
1.0
 70
    24
 71
     3
 72
    10
 73
     6
 74
     0
 42
0.000000001
 43
0.0000000001
 40
0.0
 40
0.0
 40
0.0
 40
0.0
 40
0.7289096076549586
 40
0.7289096076549586
 40
1.0
 40
1.0
 40
1.0
 40
1.0
 10
120.9617310675252
 20
73.95758928571426
 30
0.0
 10
120.8443755348901
 20
73.95758928571426
 30
0.0
 10
120.7270200022549
 20
73.95758928571426
 30
0.0
 10
120.566018512629
 20
73.95758928571426
 30
0.0
 10
120.5222332469689
 20
73.95758928571426
 30
0.0
 10
120.4785176356435
 20
73.95758928571426
 30
0.0
  0
SPLINE
  5
1D0
330
1F
100
AcDbEntity
  8
1
  6
Continuous
 62
    40
370
    18
100
AcDbSpline
210
0.0
220
0.0
230
1.0
 70
    24
 71
     3
 72
     8
 73
     4
 74
     0
 42
0.000000001
 43
0.0000000001
 40
0.0
 40
0.0
 40
0.0
 40
0.0
 40
1.0
 40
1.0
 40
1.0
 40
1.0
 10
118.2983193983376
 20
59.95758928571426
 30
0.0
 10
118.4274272262433
 20
59.95758928571426
 30
0.0
 10
118.556535054149
 20
59.95758928571426
 30
0.0
 10
118.6856428820547
 20
59.95758928571426
 30
0.0
  0
SPLINE
  5
1D1
330
1F
100
AcDbEntity
  8
1
  6
Continuous
 62
    40
370
    18
100
AcDbSpline
210
0.0
220
0.0
230
1.0
 70
    24
 71
     3
 72
     8
 73
     4
 74
     0
 42
0.000000001
 43
0.0000000001
 40
0.0
 40
0.0
 40
0.0
 40
0.0
 40
1.0
 40
1.0
 40
1.0
 40
1.0
 10
121.3490545512423
 20
73.95758928571426
 30
0.0
 10
121.2199467233366
 20
73.95758928571426
 30
0.0
 10
121.0908388954309
 20
73.95758928571426
 30
0.0
 10
120.9617310675252
 20
73.95758928571426
 30
0.0
  0
LINE
  5
1D2
330
1F
100
AcDbEntity
  8
1
  6
CENTER
 62
    30
370
    13
100
AcDbLine
 10
254.128834
 20
158.623188
 30
0.0
 11
254.128834
 21
201.01052
 31
0.0
  0
LINE
  5
1D3
330
1F
100
AcDbEntity
  8
1
  6
CENTER
 62
    30
370
    13
100
AcDbLine
 10
119.823687
 20
158.623188
 30
0.0
 11
119.823687
 21
201.01052
 31
0.0
  0
ENDSEC
  0
SECTION
  2
OBJECTS
  0
DICTIONARY
  5
C
330
0
100
AcDbDictionary
281
     1
  3
ACAD_DETAILVIEWSTYLE
350
228
  3
ACAD_GROUP
350
D
  3
ACAD_LAYOUT
350
1A
  3
ACAD_MATERIAL
350
43
  3
ACAD_MLEADERSTYLE
350
6B
  3
ACAD_MLINESTYLE
350
17
  3
ACAD_PLOTSETTINGS
350
19
  3
ACAD_PLOTSTYLENAME
350
E
  3
ACAD_SCALELIST
350
47
  3
ACAD_SECTIONVIEWSTYLE
350
229
  3
ACAD_TABLESTYLE
350
69
  3
ACAD_VISUALSTYLE
350
2A
  3
ACDB_RECOMPOSE_DATA
350
225
  3
AcDbVariableDictionary
350
1E5
  0
DICTIONARY
  5
1E3
330
8
100
AcDbDictionary
280
     1
281
     1
  3
ACAD_XREC_ROUNDTRIP
360
1E4
  0
DICTIONARY
  5
228
102
{ACAD_REACTORS
330
C
102
}
330
C
100
AcDbDictionary
281
     1
  0
DICTIONARY
  5
D
102
{ACAD_REACTORS
330
C
102
}
330
C
100
AcDbDictionary
281
     1
  0
DICTIONARY
  5
1A
102
{ACAD_REACTORS
330
C
102
}
330
C
100
AcDbDictionary
281
     1
  3
Layout1
350
1E
  3
Layout2
350
26
  3
Model
350
22
  0
DICTIONARY
  5
43
102
{ACAD_REACTORS
330
C
102
}
330
C
100
AcDbDictionary
281
     1
  3
ByBlock
350
45
  3
ByLayer
350
44
  3
Global
350
46
  0
DICTIONARY
  5
6B
102
{ACAD_REACTORS
330
C
102
}
330
C
100
AcDbDictionary
281
     1
  3
Standard
350
6C
  0
DICTIONARY
  5
17
102
{ACAD_REACTORS
330
C
102
}
330
C
100
AcDbDictionary
281
     1
  3
Standard
350
18
  0
DICTIONARY
  5
19
102
{ACAD_REACTORS
330
C
102
}
330
C
100
AcDbDictionary
281
     1
  0
ACDBDICTIONARYWDFLT
  5
E
102
{ACAD_REACTORS
330
C
102
}
330
C
100
AcDbDictionary
281
     1
  3
Normal
350
F
100
AcDbDictionaryWithDefault
340
F
  0
DICTIONARY
  5
47
102
{ACAD_REACTORS
330
C
102
}
330
C
100
AcDbDictionary
281
     1
  3
A0
350
48
  3
A1
350
49
  3
A2
350
4A
  3
A3
350
4B
  3
A4
350
4C
  3
A5
350
4D
  3
A6
350
4E
  3
A7
350
4F
  3
A8
350
50
  3
A9
350
51
  3
B0
350
52
  3
B1
350
53
  3
B2
350
54
  3
B3
350
55
  3
B4
350
56
  3
B5
350
57
  3
B6
350
58
  3
B7
350
59
  3
B8
350
5A
  3
B9
350
5B
  3
C0
350
5C
  3
C1
350
5D
  3
C2
350
5E
  3
C3
350
5F
  3
C4
350
60
  3
C5
350
61
  3
C6
350
62
  3
C7
350
63
  3
C8
350
64
  3
C9
350
65
  3
D0
350
66
  3
D1
350
67
  3
D2
350
68
  0
DICTIONARY
  5
229
102
{ACAD_REACTORS
330
C
102
}
330
C
100
AcDbDictionary
281
     1
  0
DICTIONARY
  5
69
102
{ACAD_REACTORS
330
C
102
}
330
C
100
AcDbDictionary
281
     1
  3
Standard
350
6A
  0
DICTIONARY
  5
2A
102
{ACAD_REACTORS
330
C
102
}
330
C
100
AcDbDictionary
281
     1
  3
2dWireframe
350
2F
  3
Basic
350
32
  3
Brighten
350
36
  3
ColorChange
350
3A
  3
Conceptual
350
34
  3
Dim
350
35
  3
EdgeColorOff
350
3D
  3
Facepattern
350
39
  3
Flat
350
2B
  3
FlatWithEdges
350
2C
  3
Gouraud
350
2D
  3
GouraudWithEdges
350
2E
  3
Hidden
350
31
  3
JitterOff
350
3B
  3
Linepattern
350
38
  3
OverhangOff
350
3C
  3
Realistic
350
33
  3
Shaded
350
42
  3
Shaded with edges
350
41
  3
Shades of Gray
350
3E
  3
Sketchy
350
3F
  3
Thicken
350
37
  3
Wireframe
350
30
  3
X-Ray
350
40
  0
XRECORD
  5
225
102
{ACAD_REACTORS
330
C
102
}
330
C
100
AcDbXrecord
280
     1
 90
        1
330
6A
  0
DICTIONARY
  5
1E5
102
{ACAD_REACTORS
330
C
102
}
330
C
100
AcDbDictionary
281
     1
  3
CANNOSCALE
350
1E6
  3
CMLEADERSTYLE
350
227
  3
CTABLESTYLE
350
226
  3
MSLTSCALE
350
1E7
  3
XCLIPFRAME
350
1E8
  0
XRECORD
  5
1E4
102
{ACAD_REACTORS
330
1E3
102
}
330
1E3
100
AcDbXrecord
280
     1
102
VTR_0.000_0.000_1.000_1.000_VISUALSTYLE
340
2F
102
VTR_0.000_0.000_1.000_1.000_GRIDDISPLAY
 70
     3
102
VTR_0.000_0.000_1.000_1.000_GRIDMAJOR
 70
     5
102
VTR_0.000_0.000_1.000_1.000_DEFAULTLIGHTING
280
     1
102
VTR_0.000_0.000_1.000_1.000_DEFAULTLIGHTINGTYPE
 70
     1
102
VTR_0.000_0.000_1.000_1.000_BRIGHTNESS
141
0.0
102
VTR_0.000_0.000_1.000_1.000_CONTRAST
142
0.0
102
VTR_0.000_0.000_0.500_1.000_VISUALSTYLE
340
2F
102
VTR_0.000_0.000_0.500_1.000_GRIDDISPLAY
 70
     3
102
VTR_0.000_0.000_0.500_1.000_GRIDMAJOR
 70
     5
102
VTR_0.000_0.000_0.500_1.000_DEFAULTLIGHTING
280
     1
102
VTR_0.000_0.000_0.500_1.000_DEFAULTLIGHTINGTYPE
 70
     1
102
VTR_0.000_0.000_0.500_1.000_BRIGHTNESS
141
0.0
102
VTR_0.000_0.000_0.500_1.000_CONTRAST
142
0.0
102
VTR_0.500_0.000_1.000_1.000_VISUALSTYLE
340
2F
102
VTR_0.500_0.000_1.000_1.000_GRIDDISPLAY
 70
     3
102
VTR_0.500_0.000_1.000_1.000_GRIDMAJOR
 70
     5
102
VTR_0.500_0.000_1.000_1.000_DEFAULTLIGHTING
280
     1
102
VTR_0.500_0.000_1.000_1.000_DEFAULTLIGHTINGTYPE
 70
     1
102
VTR_0.500_0.000_1.000_1.000_BRIGHTNESS
141
0.0
102
VTR_0.500_0.000_1.000_1.000_CONTRAST
142
0.0
102
VTR_0.000_0.500_1.000_1.000_VISUALSTYLE
340
2F
102
VTR_0.000_0.500_1.000_1.000_GRIDDISPLAY
 70
     3
102
VTR_0.000_0.500_1.000_1.000_GRIDMAJOR
 70
     5
102
VTR_0.000_0.500_1.000_1.000_DEFAULTLIGHTING
280
     1
102
VTR_0.000_0.500_1.000_1.000_DEFAULTLIGHTINGTYPE
 70
     1
102
VTR_0.000_0.500_1.000_1.000_BRIGHTNESS
141
0.0
102
VTR_0.000_0.500_1.000_1.000_CONTRAST
142
0.0
102
VTR_0.000_0.000_1.000_0.500_VISUALSTYLE
340
2F
102
VTR_0.000_0.000_1.000_0.500_GRIDDISPLAY
 70
     3
102
VTR_0.000_0.000_1.000_0.500_GRIDMAJOR
 70
     5
102
VTR_0.000_0.000_1.000_0.500_DEFAULTLIGHTING
280
     1
102
VTR_0.000_0.000_1.000_0.500_DEFAULTLIGHTINGTYPE
 70
     1
102
VTR_0.000_0.000_1.000_0.500_BRIGHTNESS
141
0.0
102
VTR_0.000_0.000_1.000_0.500_CONTRAST
142
0.0
102
VTR_0.000_0.500_0.500_1.000_VISUALSTYLE
340
2F
102
VTR_0.000_0.500_0.500_1.000_GRIDDISPLAY
 70
     3
102
VTR_0.000_0.500_0.500_1.000_GRIDMAJOR
 70
     5
102
VTR_0.000_0.500_0.500_1.000_DEFAULTLIGHTING
280
     1
102
VTR_0.000_0.500_0.500_1.000_DEFAULTLIGHTINGTYPE
 70
     1
102
VTR_0.000_0.500_0.500_1.000_BRIGHTNESS
141
0.0
102
VTR_0.000_0.500_0.500_1.000_CONTRAST
142
0.0
102
VTR_0.000_0.000_0.500_0.500_VISUALSTYLE
340
2F
102
VTR_0.000_0.000_0.500_0.500_GRIDDISPLAY
 70
     3
102
VTR_0.000_0.000_0.500_0.500_GRIDMAJOR
 70
     5
102
VTR_0.000_0.000_0.500_0.500_DEFAULTLIGHTING
280
     1
102
VTR_0.000_0.000_0.500_0.500_DEFAULTLIGHTINGTYPE
 70
     1
102
VTR_0.000_0.000_0.500_0.500_BRIGHTNESS
141
0.0
102
VTR_0.000_0.000_0.500_0.500_CONTRAST
142
0.0
102
VTR_0.500_0.000_1.000_0.500_VISUALSTYLE
340
2F
102
VTR_0.500_0.000_1.000_0.500_GRIDDISPLAY
 70
     3
102
VTR_0.500_0.000_1.000_0.500_GRIDMAJOR
 70
     5
102
VTR_0.500_0.000_1.000_0.500_DEFAULTLIGHTING
280
     1
102
VTR_0.500_0.000_1.000_0.500_DEFAULTLIGHTINGTYPE
 70
     1
102
VTR_0.500_0.000_1.000_0.500_BRIGHTNESS
141
0.0
102
VTR_0.500_0.000_1.000_0.500_CONTRAST
142
0.0
102
VTR_0.500_0.500_1.000_1.000_VISUALSTYLE
340
2F
102
VTR_0.500_0.500_1.000_1.000_GRIDDISPLAY
 70
     3
102
VTR_0.500_0.500_1.000_1.000_GRIDMAJOR
 70
     5
102
VTR_0.500_0.500_1.000_1.000_DEFAULTLIGHTING
280
     1
102
VTR_0.500_0.500_1.000_1.000_DEFAULTLIGHTINGTYPE
 70
     1
102
VTR_0.500_0.500_1.000_1.000_BRIGHTNESS
141
0.0
102
VTR_0.500_0.500_1.000_1.000_CONTRAST
142
0.0
102
VTR_0.000_0.500_0.333_1.000_VISUALSTYLE
340
2F
102
VTR_0.000_0.500_0.333_1.000_GRIDDISPLAY
 70
     3
102
VTR_0.000_0.500_0.333_1.000_GRIDMAJOR
 70
     5
102
VTR_0.000_0.500_0.333_1.000_DEFAULTLIGHTING
280
     1
102
VTR_0.000_0.500_0.333_1.000_DEFAULTLIGHTINGTYPE
 70
     1
102
VTR_0.000_0.500_0.333_1.000_BRIGHTNESS
141
0.0
102
VTR_0.000_0.500_0.333_1.000_CONTRAST
142
0.0
102
VTR_0.000_0.000_0.333_0.500_VISUALSTYLE
340
2F
102
VTR_0.000_0.000_0.333_0.500_GRIDDISPLAY
 70
     3
102
VTR_0.000_0.000_0.333_0.500_GRIDMAJOR
 70
     5
102
VTR_0.000_0.000_0.333_0.500_DEFAULTLIGHTING
280
     1
102
VTR_0.000_0.000_0.333_0.500_DEFAULTLIGHTINGTYPE
 70
     1
102
VTR_0.000_0.000_0.333_0.500_BRIGHTNESS
141
0.0
102
VTR_0.000_0.000_0.333_0.500_CONTRAST
142
0.0
102
VTR_0.333_0.500_0.667_1.000_VISUALSTYLE
340
2F
102
VTR_0.333_0.500_0.667_1.000_GRIDDISPLAY
 70
     3
102
VTR_0.333_0.500_0.667_1.000_GRIDMAJOR
 70
     5
102
VTR_0.333_0.500_0.667_1.000_DEFAULTLIGHTING
280
     1
102
VTR_0.333_0.500_0.667_1.000_DEFAULTLIGHTINGTYPE
 70
     1
102
VTR_0.333_0.500_0.667_1.000_BRIGHTNESS
141
0.0
102
VTR_0.333_0.500_0.667_1.000_CONTRAST
142
0.0
102
VTR_0.333_0.000_0.667_0.500_VISUALSTYLE
340
2F
102
VTR_0.333_0.000_0.667_0.500_GRIDDISPLAY
 70
     3
102
VTR_0.333_0.000_0.667_0.500_GRIDMAJOR
 70
     5
102
VTR_0.333_0.000_0.667_0.500_DEFAULTLIGHTING
280
     1
102
VTR_0.333_0.000_0.667_0.500_DEFAULTLIGHTINGTYPE
 70
     1
102
VTR_0.333_0.000_0.667_0.500_BRIGHTNESS
141
0.0
102
VTR_0.333_0.000_0.667_0.500_CONTRAST
142
0.0
102
VTR_0.667_0.500_1.000_1.000_VISUALSTYLE
340
2F
102
VTR_0.667_0.500_1.000_1.000_GRIDDISPLAY
 70
     3
102
VTR_0.667_0.500_1.000_1.000_GRIDMAJOR
 70
     5
102
VTR_0.667_0.500_1.000_1.000_DEFAULTLIGHTING
280
     1
102
VTR_0.667_0.500_1.000_1.000_DEFAULTLIGHTINGTYPE
 70
     1
102
VTR_0.667_0.500_1.000_1.000_BRIGHTNESS
141
0.0
102
VTR_0.667_0.500_1.000_1.000_CONTRAST
142
0.0
102
VTR_0.667_0.000_1.000_0.500_VISUALSTYLE
340
2F
102
VTR_0.667_0.000_1.000_0.500_GRIDDISPLAY
 70
     3
102
VTR_0.667_0.000_1.000_0.500_GRIDMAJOR
 70
     5
102
VTR_0.667_0.000_1.000_0.500_DEFAULTLIGHTING
280
     1
102
VTR_0.667_0.000_1.000_0.500_DEFAULTLIGHTINGTYPE
 70
     1
102
VTR_0.667_0.000_1.000_0.500_BRIGHTNESS
141
0.0
102
VTR_0.667_0.000_1.000_0.500_CONTRAST
142
0.0
  0
LAYOUT
  5
1E
102
{ACAD_REACTORS
330
1A
102
}
330
1A
100
AcDbPlotSettings
  1

  2
none_device
  4

  6

 40
0.0
 41
0.0
 42
0.0
 43
0.0
 44
0.0
 45
0.0
 46
0.0
 47
0.0
 48
0.0
 49
0.0
140
0.0
141
0.0
142
1.0
143
1.0
 70
   688
 72
     0
 73
     0
 74
     5
  7

 75
    16
 76
     0
 77
     2
 78
   300
147
1.0
148
0.0
149
0.0
100
AcDbLayout
  1
Layout1
 70
     1
 71
     1
 10
-0.5
 20
-0.5
 11
5.0
 21
5.0
 12
0.0
 22
0.0
 32
0.0
 14
-0.5
 24
-0.5
 34
-0.5
 15
5.0
 25
5.0
 35
5.0
146
0.0
 13
0.0
 23
0.0
 33
0.0
 16
1.0
 26
0.0
 36
0.0
 17
0.0
 27
1.0
 37
0.0
 76
     0
330
1B
  0
LAYOUT
  5
26
102
{ACAD_REACTORS
330
1A
102
}
330
1A
100
AcDbPlotSettings
  1

  2
none_device
  4

  6

 40
0.0
 41
0.0
 42
0.0
 43
0.0
 44
0.0
 45
0.0
 46
0.0
 47
0.0
 48
0.0
 49
0.0
140
0.0
141
0.0
142
1.0
143
1.0
 70
   688
 72
     0
 73
     0
 74
     5
  7

 75
    16
 76
     0
 77
     2
 78
   300
147
1.0
148
0.0
149
0.0
100
AcDbLayout
  1
Layout2
 70
     1
 71
     2
 10
0.0
 20
0.0
 11
0.0
 21
0.0
 12
0.0
 22
0.0
 32
0.0
 14
0.0
 24
0.0
 34
0.0
 15
0.0
 25
0.0
 35
0.0
146
0.0
 13
0.0
 23
0.0
 33
0.0
 16
1.0
 26
0.0
 36
0.0
 17
0.0
 27
1.0
 37
0.0
 76
     0
330
23
  0
LAYOUT
  5
22
102
{ACAD_REACTORS
330
1A
102
}
330
1A
100
AcDbPlotSettings
  1

  2
none_device
  4
Letter_(8.50_x_11.00_Inches)
  6

 40
6.35
 41
6.35
 42
6.350005
 43
6.350005
 44
215.9
 45
279.4
 46
0.0
 47
0.0
 48
0.0
 49
0.0
140
0.0
141
0.0
142
1.0
143
1.0
 70
  1712
 72
     0
 73
     0
 74
     0
  7

 75
     0
 76
     0
 77
     2
 78
   300
147
1.0
148
0.0
149
0.0
100
AcDbLayout
  1
Model
 70
     1
 71
     0
 10
-0.5
 20
-0.5
 11
5.0
 21
5.0
 12
0.0
 22
0.0
 32
0.0
 14
-0.5
 24
-0.5
 34
-0.5
 15
5.0
 25
5.0
 35
5.0
146
0.0
 13
0.0
 23
0.0
 33
0.0
 16
1.0
 26
0.0
 36
0.0
 17
0.0
 27
1.0
 37
0.0
 76
     0
330
1F
331
29
  0
MATERIAL
  5
45
102
{ACAD_REACTORS
330
43
102
}
102
{ACAD_XDICTIONARY
360
21B
102
}
330
43
100
AcDbMaterial
  1
ByBlock
  0
MATERIAL
  5
44
102
{ACAD_REACTORS
330
43
102
}
102
{ACAD_XDICTIONARY
360
219
102
}
330
43
100
AcDbMaterial
  1
ByLayer
  0
MATERIAL
  5
46
102
{ACAD_REACTORS
330
43
102
}
102
{ACAD_XDICTIONARY
360
21D
102
}
330
43
100
AcDbMaterial
  1
Global
  0
MLEADERSTYLE
  5
6C
102
{ACAD_REACTORS
330
6B
102
}
102
{ACAD_XDICTIONARY
360
223
102
}
330
6B
100
AcDbMLeaderStyle
170
     2
171
     1
172
     0
 90
        2
 40
0.0
 41
0.0
173
     1
 91
-1056964608
340
14
 92
       -2
290
     1
 42
0.09
291
     1
 43
0.36
  3
Standard
341
0
 44
0.18
300

342
11
174
     1
178
     6
175
     1
176
     0
 93
-1056964608
 45
0.18
292
     0
297
     0
 46
0.18
343
0
 94
-1056964608
 47
1.0
 49
1.0
140
1.0
293
     1
141
0.0
294
     1
177
     0
142
1.0
295
     0
296
     0
143
0.125
1001
ACAD_MLEADERVER
1070
     2
  0
MLINESTYLE
  5
18
102
{ACAD_REACTORS
330
17
102
}
330
17
100
AcDbMlineStyle
  2
Standard
 70
     0
  3

 62
   256
 51
90.0
 52
90.0
 71
     2
 49
0.5
 62
   256
  6
BYLAYER
 49
-0.5
 62
   256
  6
BYLAYER
  0
ACDBPLACEHOLDER
  5
F
102
{ACAD_REACTORS
330
E
102
}
330
E
  0
SCALE
  5
48
102
{ACAD_REACTORS
330
47
102
}
330
47
100
AcDbScale
 70
     0
300
1:1
140
1.0
141
1.0
290
     1
  0
SCALE
  5
49
102
{ACAD_REACTORS
330
47
102
}
330
47
100
AcDbScale
 70
     0
300
1:2
140
1.0
141
2.0
290
     0
  0
SCALE
  5
4A
102
{ACAD_REACTORS
330
47
102
}
330
47
100
AcDbScale
 70
     0
300
1:4
140
1.0
141
4.0
290
     0
  0
SCALE
  5
4B
102
{ACAD_REACTORS
330
47
102
}
330
47
100
AcDbScale
 70
     0
300
1:5
140
1.0
141
5.0
290
     0
  0
SCALE
  5
4C
102
{ACAD_REACTORS
330
47
102
}
330
47
100
AcDbScale
 70
     0
300
1:8
140
1.0
141
8.0
290
     0
  0
SCALE
  5
4D
102
{ACAD_REACTORS
330
47
102
}
330
47
100
AcDbScale
 70
     0
300
1:10
140
1.0
141
10.0
290
     0
  0
SCALE
  5
4E
102
{ACAD_REACTORS
330
47
102
}
330
47
100
AcDbScale
 70
     0
300
1:16
140
1.0
141
16.0
290
     0
  0
SCALE
  5
4F
102
{ACAD_REACTORS
330
47
102
}
330
47
100
AcDbScale
 70
     0
300
1:20
140
1.0
141
20.0
290
     0
  0
SCALE
  5
50
102
{ACAD_REACTORS
330
47
102
}
330
47
100
AcDbScale
 70
     0
300
1:30
140
1.0
141
30.0
290
     0
  0
SCALE
  5
51
102
{ACAD_REACTORS
330
47
102
}
330
47
100
AcDbScale
 70
     0
300
1:40
140
1.0
141
40.0
290
     0
  0
SCALE
  5
52
102
{ACAD_REACTORS
330
47
102
}
330
47
100
AcDbScale
 70
     0
300
1:50
140
1.0
141
50.0
290
     0
  0
SCALE
  5
53
102
{ACAD_REACTORS
330
47
102
}
330
47
100
AcDbScale
 70
     0
300
1:100
140
1.0
141
100.0
290
     0
  0
SCALE
  5
54
102
{ACAD_REACTORS
330
47
102
}
330
47
100
AcDbScale
 70
     0
300
2:1
140
2.0
141
1.0
290
     0
  0
SCALE
  5
55
102
{ACAD_REACTORS
330
47
102
}
330
47
100
AcDbScale
 70
     0
300
4:1
140
4.0
141
1.0
290
     0
  0
SCALE
  5
56
102
{ACAD_REACTORS
330
47
102
}
330
47
100
AcDbScale
 70
     0
300
8:1
140
8.0
141
1.0
290
     0
  0
SCALE
  5
57
102
{ACAD_REACTORS
330
47
102
}
330
47
100
AcDbScale
 70
     0
300
10:1
140
10.0
141
1.0
290
     0
  0
SCALE
  5
58
102
{ACAD_REACTORS
330
47
102
}
330
47
100
AcDbScale
 70
     0
300
100:1
140
100.0
141
1.0
290
     0
  0
SCALE
  5
59
102
{ACAD_REACTORS
330
47
102
}
330
47
100
AcDbScale
 70
     0
300
1/128" = 1'-0"
140
0.007812
141
12.0
290
     0
  0
SCALE
  5
5A
102
{ACAD_REACTORS
330
47
102
}
330
47
100
AcDbScale
 70
     0
300
1/64" = 1'-0"
140
0.015625
141
12.0
290
     0
  0
SCALE
  5
5B
102
{ACAD_REACTORS
330
47
102
}
330
47
100
AcDbScale
 70
     0
300
1/32" = 1'-0"
140
0.03125
141
12.0
290
     0
  0
SCALE
  5
5C
102
{ACAD_REACTORS
330
47
102
}
330
47
100
AcDbScale
 70
     0
300
1/16" = 1'-0"
140
0.0625
141
12.0
290
     0
  0
SCALE
  5
5D
102
{ACAD_REACTORS
330
47
102
}
330
47
100
AcDbScale
 70
     0
300
3/32" = 1'-0"
140
0.09375
141
12.0
290
     0
  0
SCALE
  5
5E
102
{ACAD_REACTORS
330
47
102
}
330
47
100
AcDbScale
 70
     0
300
1/8" = 1'-0"
140
0.125
141
12.0
290
     0
  0
SCALE
  5
5F
102
{ACAD_REACTORS
330
47
102
}
330
47
100
AcDbScale
 70
     0
300
3/16" = 1'-0"
140
0.1875
141
12.0
290
     0
  0
SCALE
  5
60
102
{ACAD_REACTORS
330
47
102
}
330
47
100
AcDbScale
 70
     0
300
1/4" = 1'-0"
140
0.25
141
12.0
290
     0
  0
SCALE
  5
61
102
{ACAD_REACTORS
330
47
102
}
330
47
100
AcDbScale
 70
     0
300
3/8" = 1'-0"
140
0.375
141
12.0
290
     0
  0
SCALE
  5
62
102
{ACAD_REACTORS
330
47
102
}
330
47
100
AcDbScale
 70
     0
300
1/2" = 1'-0"
140
0.5
141
12.0
290
     0
  0
SCALE
  5
63
102
{ACAD_REACTORS
330
47
102
}
330
47
100
AcDbScale
 70
     0
300
3/4" = 1'-0"
140
0.75
141
12.0
290
     0
  0
SCALE
  5
64
102
{ACAD_REACTORS
330
47
102
}
330
47
100
AcDbScale
 70
     0
300
1" = 1'-0"
140
1.0
141
12.0
290
     0
  0
SCALE
  5
65
102
{ACAD_REACTORS
330
47
102
}
330
47
100
AcDbScale
 70
     0
300
1-1/2" = 1'-0"
140
1.5
141
12.0
290
     0
  0
SCALE
  5
66
102
{ACAD_REACTORS
330
47
102
}
330
47
100
AcDbScale
 70
     0
300
3" = 1'-0"
140
3.0
141
12.0
290
     0
  0
SCALE
  5
67
102
{ACAD_REACTORS
330
47
102
}
330
47
100
AcDbScale
 70
     0
300
6" = 1'-0"
140
6.0
141
12.0
290
     0
  0
SCALE
  5
68
102
{ACAD_REACTORS
330
47
102
}
330
47
100
AcDbScale
 70
     0
300
1'-0" = 1'-0"
140
12.0
141
12.0
290
     0
  0
TABLESTYLE
  5
6A
102
{ACAD_REACTORS
330
69
102
}
102
{ACAD_XDICTIONARY
360
21F
102
}
330
69
100
AcDbTableStyle
  3
Standard
 70
     0
 71
     0
 40
0.06
 41
0.06
280
     0
281
     0
  7
Standard
140
0.18
170
     2
 62
     0
 63
   257
283
     0
274
    -2
284
     1
 64
     0
275
    -2
285
     1
 65
     0
276
    -2
286
     1
 66
     0
277
    -2
287
     1
 67
     0
278
    -2
288
     1
 68
     0
279
    -2
289
     1
 69
     0
  7
Standard
140
0.25
170
     5
 62
     0
 63
   257
283
     0
274
    -2
284
     1
 64
     0
275
    -2
285
     1
 65
     0
276
    -2
286
     1
 66
     0
277
    -2
287
     1
 67
     0
278
    -2
288
     1
 68
     0
279
    -2
289
     1
 69
     0
  7
Standard
140
0.18
170
     5
 62
     0
 63
   257
283
     0
274
    -2
284
     1
 64
     0
275
    -2
285
     1
 65
     0
276
    -2
286
     1
 66
     0
277
    -2
287
     1
 67
     0
278
    -2
288
     1
 68
     0
279
    -2
289
     1
 69
     0
  0
VISUALSTYLE
  5
2F
102
{ACAD_REACTORS
330
2A
102
}
102
{ACAD_XDICTIONARY
360
1F1
102
}
330
2A
100
AcDbVisualStyle
  2
2dWireframe
 70
     4
 71
     0
 72
     2
 73
     0
 90
        0
 40
0.6
 41
30.0
 62
     5
 63
     7
421
 16777215
 74
     1
 91
        4
 64
     7
 65
   257
 75
     1
175
     1
 42
1.0
 92
        0
 66
   257
 43
1.0
 76
     1
 77
     6
 78
     2
 67
     7
 79
     5
170
     0
171
     0
290
     0
174
     0
 93
        1
 44
0.0
173
     0
291
     0
 45
0.0
1001
ACAD
1000
AcDbSavedByObjectVersion
1070
     0
  0
VISUALSTYLE
  5
32
102
{ACAD_REACTORS
330
2A
102
}
102
{ACAD_XDICTIONARY
360
1F7
102
}
330
2A
100
AcDbVisualStyle
  2
Basic
 70
     7
 71
     1
 72
     0
 73
     1
 90
        0
 40
0.6
 41
30.0
 62
     5
 63
     7
421
 16777215
 74
     0
 91
        4
 64
     7
 65
   257
 75
     1
175
     1
 42
1.0
 92
        8
 66
     7
 43
1.0
 76
     1
 77
     6
 78
     2
 67
     7
 79
     5
170
     0
171
     0
290
     0
174
     0
 93
        1
 44
0.0
173
     0
291
     1
 45
0.0
1001
ACAD
1000
AcDbSavedByObjectVersion
1070
     0
  0
VISUALSTYLE
  5
36
102
{ACAD_REACTORS
330
2A
102
}
102
{ACAD_XDICTIONARY
360
1FF
102
}
330
2A
100
AcDbVisualStyle
  2
Brighten
 70
    12
 71
     2
 72
     2
 73
     0
 90
        0
 40
0.6
 41
30.0
 62
     5
 63
     7
421
 16777215
 74
     1
 91
        4
 64
     7
 65
   257
 75
     1
175
     1
 42
1.0
 92
        8
 66
     7
 43
1.0
 76
     1
 77
     6
 78
     2
 67
     7
 79
     5
170
     0
171
     0
290
     0
174
     0
 93
        1
 44
50.0
173
     0
291
     1
 45
0.0
1001
ACAD
1000
AcDbSavedByObjectVersion
1070
     0
  0
VISUALSTYLE
  5
3A
102
{ACAD_REACTORS
330
2A
102
}
102
{ACAD_XDICTIONARY
360
207
102
}
330
2A
100
AcDbVisualStyle
  2
ColorChange
 70
    16
 71
     2
 72
     2
 73
     3
 90
        0
 40
0.6
 41
30.0
 62
     5
 63
     8
421
  8421504
 74
     1
 91
        4
 64
     7
 65
   257
 75
     1
175
     1
 42
1.0
 92
        8
 66
     8
424
  8421504
 43
1.0
 76
     1
 77
     6
 78
     2
 67
     7
 79
     5
170
     0
171
     0
290
     0
174
     0
 93
        1
 44
0.0
173
     0
291
     1
 45
0.0
1001
ACAD
1000
AcDbSavedByObjectVersion
1070
     0
  0
VISUALSTYLE
  5
34
102
{ACAD_REACTORS
330
2A
102
}
102
{ACAD_XDICTIONARY
360
1FB
102
}
330
2A
100
AcDbVisualStyle
  2
Conceptual
 70
     9
 71
     3
 72
     2
 73
     0
 90
        0
 40
0.6
 41
30.0
 62
     5
 63
     7
421
 16777215
 74
     2
 91
        2
 64
     7
 65
   257
 75
     1
175
     1
 42
179.0
 92
        8
 66
     7
 43
1.0
 76
     1
 77
     6
 78
     2
 67
     7
 79
     3
170
     0
171
     0
290
     0
174
     0
 93
        1
 44
0.0
173
     0
291
     0
 45
0.0
1001
ACAD
1000
AcDbSavedByObjectVersion
1070
     0
  0
VISUALSTYLE
  5
35
102
{ACAD_REACTORS
330
2A
102
}
102
{ACAD_XDICTIONARY
360
1FD
102
}
330
2A
100
AcDbVisualStyle
  2
Dim
 70
    11
 71
     2
 72
     2
 73
     0
 90
        0
 40
0.6
 41
30.0
 62
     5
 63
     7
421
 16777215
 74
     1
 91
        4
 64
     7
 65
   257
 75
     1
175
     1
 42
1.0
 92
        8
 66
     7
 43
1.0
 76
     1
 77
     6
 78
     2
 67
     7
 79
     5
170
     0
171
     0
290
     0
174
     0
 93
        1
 44
-50.0
173
     0
291
     1
 45
0.0
1001
ACAD
1000
AcDbSavedByObjectVersion
1070
     0
  0
VISUALSTYLE
  5
3D
102
{ACAD_REACTORS
330
2A
102
}
102
{ACAD_XDICTIONARY
360
20D
102
}
330
2A
100
AcDbVisualStyle
  2
EdgeColorOff
 70
    22
 71
     2
 72
     2
 73
     0
 90
        0
 40
0.6
 41
30.0
 62
     5
 63
     7
421
 16777215
 74
     1
 91
        4
 64
     7
 65
   257
 75
     1
175
     1
 42
1.0
 92
        8
 66
     7
 43
1.0
 76
     1
 77
     6
 78
     2
 67
     7
 79
     5
170
     0
171
     0
290
     0
174
     0
 93
        1
 44
0.0
173
     0
291
     1
 45
0.0
1001
ACAD
1000
AcDbSavedByObjectVersion
1070
     0
  0
VISUALSTYLE
  5
39
102
{ACAD_REACTORS
330
2A
102
}
102
{ACAD_XDICTIONARY
360
205
102
}
330
2A
100
AcDbVisualStyle
  2
Facepattern
 70
    15
 71
     2
 72
     2
 73
     0
 90
        0
 40
0.6
 41
30.0
 62
     5
 63
     7
421
 16777215
 74
     1
 91
        4
 64
     7
 65
   257
 75
     1
175
     1
 42
1.0
 92
        8
 66
     7
 43
1.0
 76
     1
 77
     6
 78
     2
 67
     7
 79
     5
170
     0
171
     0
290
     0
174
     0
 93
        1
 44
0.0
173
     0
291
     1
 45
0.0
1001
ACAD
1000
AcDbSavedByObjectVersion
1070
     0
  0
VISUALSTYLE
  5
2B
102
{ACAD_REACTORS
330
2A
102
}
102
{ACAD_XDICTIONARY
360
1E9
102
}
330
2A
100
AcDbVisualStyle
  2
Flat
 70
     0
 71
     2
 72
     1
 73
     1
 90
        2
 40
0.6
 41
30.0
 62
     5
 63
     7
421
 16777215
 74
     0
 91
        0
 64
     7
 65
   257
 75
     1
175
     1
 42
1.0
 92
        8
 66
     7
 43
1.0
 76
     1
 77
     6
 78
     2
 67
     7
 79
     5
170
     0
171
     0
290
     0
174
     0
 93
       13
 44
0.0
173
     0
291
     1
 45
0.0
1001
ACAD
1000
AcDbSavedByObjectVersion
1070
     0
  0
VISUALSTYLE
  5
2C
102
{ACAD_REACTORS
330
2A
102
}
102
{ACAD_XDICTIONARY
360
1EB
102
}
330
2A
100
AcDbVisualStyle
  2
FlatWithEdges
 70
     1
 71
     2
 72
     1
 73
     1
 90
        2
 40
0.6
 41
30.0
 62
     5
 63
     7
421
 16777215
 74
     1
 91
        0
 64
     7
 65
   257
 75
     1
175
     1
 42
1.0
 92
        0
 66
   257
 43
1.0
 76
     1
 77
     6
 78
     2
 67
     7
 79
     5
170
     0
171
     0
290
     0
174
     0
 93
       13
 44
0.0
173
     0
291
     1
 45
0.0
1001
ACAD
1000
AcDbSavedByObjectVersion
1070
     0
  0
VISUALSTYLE
  5
2D
102
{ACAD_REACTORS
330
2A
102
}
102
{ACAD_XDICTIONARY
360
1ED
102
}
330
2A
100
AcDbVisualStyle
  2
Gouraud
 70
     2
 71
     2
 72
     2
 73
     1
 90
        2
 40
0.6
 41
30.0
 62
     5
 63
     7
421
 16777215
 74
     0
 91
        0
 64
     7
 65
   257
 75
     1
175
     1
 42
1.0
 92
        0
 66
     7
 43
1.0
 76
     1
 77
     6
 78
     2
 67
     7
 79
     5
170
     0
171
     0
290
     0
174
     0
 93
       13
 44
0.0
173
     0
291
     1
 45
0.0
1001
ACAD
1000
AcDbSavedByObjectVersion
1070
     0
  0
VISUALSTYLE
  5
2E
102
{ACAD_REACTORS
330
2A
102
}
102
{ACAD_XDICTIONARY
360
1EF
102
}
330
2A
100
AcDbVisualStyle
  2
GouraudWithEdges
 70
     3
 71
     2
 72
     2
 73
     1
 90
        2
 40
0.6
 41
30.0
 62
     5
 63
     7
421
 16777215
 74
     1
 91
        0
 64
     7
 65
   257
 75
     1
175
     1
 42
1.0
 92
        0
 66
   257
 43
1.0
 76
     1
 77
     6
 78
     2
 67
     7
 79
     5
170
     0
171
     0
290
     0
174
     0
 93
       13
 44
0.0
173
     0
291
     1
 45
0.0
1001
ACAD
1000
AcDbSavedByObjectVersion
1070
     0
  0
VISUALSTYLE
  5
31
102
{ACAD_REACTORS
330
2A
102
}
102
{ACAD_XDICTIONARY
360
1F5
102
}
330
2A
100
AcDbVisualStyle
  2
Hidden
 70
     6
 71
     1
 72
     2
 73
     2
 90
        0
 40
0.6
 41
30.0
 62
     5
 63
     7
421
 16777215
 74
     2
 91
        2
 64
     7
 65
   257
 75
     2
175
     1
 42
40.0
 92
        0
 66
   257
 43
1.0
 76
     1
 77
     6
 78
     2
 67
     7
 79
     3
170
     0
171
     0
290
     0
174
     0
 93
        1
 44
0.0
173
     0
291
     0
 45
0.0
1001
ACAD
1000
AcDbSavedByObjectVersion
1070
     0
  0
VISUALSTYLE
  5
3B
102
{ACAD_REACTORS
330
2A
102
}
102
{ACAD_XDICTIONARY
360
209
102
}
330
2A
100
AcDbVisualStyle
  2
JitterOff
 70
    20
 71
     2
 72
     2
 73
     0
 90
        0
 40
0.6
 41
30.0
 62
     5
 63
     7
421
 16777215
 74
     1
 91
        4
 64
     7
 65
   257
 75
     1
175
     1
 42
1.0
 92
       10
 66
     7
 43
1.0
 76
     1
 77
     6
 78
     2
 67
     7
 79
     5
170
     0
171
     0
290
     0
174
     0
 93
        1
 44
0.0
173
     0
291
     1
 45
0.0
1001
ACAD
1000
AcDbSavedByObjectVersion
1070
     0
  0
VISUALSTYLE
  5
38
102
{ACAD_REACTORS
330
2A
102
}
102
{ACAD_XDICTIONARY
360
203
102
}
330
2A
100
AcDbVisualStyle
  2
Linepattern
 70
    14
 71
     2
 72
     2
 73
     0
 90
        0
 40
0.6
 41
30.0
 62
     5
 63
     7
421
 16777215
 74
     1
 91
        4
 64
     7
 65
   257
 75
     7
175
     7
 42
1.0
 92
        8
 66
     7
 43
1.0
 76
     1
 77
     6
 78
     2
 67
     7
 79
     5
170
     0
171
     0
290
     0
174
     0
 93
        1
 44
0.0
173
     0
291
     1
 45
0.0
1001
ACAD
1000
AcDbSavedByObjectVersion
1070
     0
  0
VISUALSTYLE
  5
3C
102
{ACAD_REACTORS
330
2A
102
}
102
{ACAD_XDICTIONARY
360
20B
102
}
330
2A
100
AcDbVisualStyle
  2
OverhangOff
 70
    21
 71
     2
 72
     2
 73
     0
 90
        0
 40
0.6
 41
30.0
 62
     5
 63
     7
421
 16777215
 74
     1
 91
        4
 64
     7
 65
   257
 75
     1
175
     1
 42
1.0
 92
        9
 66
     7
 43
1.0
 76
     1
 77
     6
 78
     2
 67
     7
 79
     5
170
     0
171
     0
290
     0
174
     0
 93
        1
 44
0.0
173
     0
291
     1
 45
0.0
1001
ACAD
1000
AcDbSavedByObjectVersion
1070
     0
  0
VISUALSTYLE
  5
33
102
{ACAD_REACTORS
330
2A
102
}
102
{ACAD_XDICTIONARY
360
1F9
102
}
330
2A
100
AcDbVisualStyle
  2
Realistic
 70
     8
 71
     2
 72
     3
 73
     0
 90
        2
 40
0.6
 41
30.0
 62
     5
 63
     7
421
 16777215
 74
     0
 91
        0
 64
     7
 65
   257
 75
     1
175
     1
 42
1.0
 92
        8
 66
   257
 43
1.0
 76
     1
 77
     6
 78
     2
 67
     7
 79
     3
170
     0
171
     0
290
     0
174
     0
 93
       13
 44
0.0
173
     0
291
     0
 45
0.0
1001
ACAD
1000
AcDbSavedByObjectVersion
1070
     0
  0
VISUALSTYLE
  5
42
102
{ACAD_REACTORS
330
2A
102
}
102
{ACAD_XDICTIONARY
360
217
102
}
330
2A
100
AcDbVisualStyle
  2
Shaded
 70
    27
 71
     2
 72
     2
 73
     1
 90
        2
 40
0.6
 41
30.0
 62
     5
 63
     7
421
 16777215
 74
     0
 91
        4
 64
     7
 65
   257
 75
     1
175
     1
 42
1.0
 92
        8
 66
   257
 43
1.0
 76
     1
 77
     6
 78
     2
 67
     8
425
  7895160
 79
     3
170
     0
171
     0
290
     0
174
     0
 93
        5
 44
0.0
173
     0
291
     0
 45
0.0
1001
ACAD
1000
AcDbSavedByObjectVersion
1070
     0
  0
VISUALSTYLE
  5
41
102
{ACAD_REACTORS
330
2A
102
}
102
{ACAD_XDICTIONARY
360
215
102
}
330
2A
100
AcDbVisualStyle
  2
Shaded with edges
 70
    26
 71
     2
 72
     2
 73
     1
 90
        2
 40
0.6
 41
30.0
 62
     5
 63
     7
421
 16777215
 74
     1
 91
       10
 64
     7
 65
   257
 75
     2
175
     1
 42
1.0
 92
        8
 66
   257
 43
1.0
 76
     1
 77
     6
 78
     2
 67
     7
 79
     3
170
     0
171
     0
290
     0
174
     0
 93
        5
 44
0.0
173
     0
291
     0
 45
0.0
1001
ACAD
1000
AcDbSavedByObjectVersion
1070
     0
  0
VISUALSTYLE
  5
3E
102
{ACAD_REACTORS
330
2A
102
}
102
{ACAD_XDICTIONARY
360
20F
102
}
330
2A
100
AcDbVisualStyle
  2
Shades of Gray
 70
    23
 71
     2
 72
     2
 73
     3
 90
        0
 40
0.6
 41
30.0
 62
     5
 63
     7
421
 16777215
 74
     2
 91
        2
 64
     7
 65
     7
 75
     1
175
     1
 42
40.0
 92
        8
 66
     7
 43
1.0
 76
     1
 77
     6
 78
     2
 67
     7
 79
     3
170
     0
171
     0
290
     0
174
     0
 93
        1
 44
0.0
173
     0
291
     0
 45
0.0
1001
ACAD
1000
AcDbSavedByObjectVersion
1070
     0
  0
VISUALSTYLE
  5
3F
102
{ACAD_REACTORS
330
2A
102
}
102
{ACAD_XDICTIONARY
360
211
102
}
330
2A
100
AcDbVisualStyle
  2
Sketchy
 70
    24
 71
     1
 72
     2
 73
     2
 90
        0
 40
0.6
 41
30.0
 62
     5
 63
     7
421
 16777215
 74
     2
 91
        2
 64
     7
 65
     7
 75
     1
175
     1
 42
40.0
 92
       11
 66
     7
 43
1.0
 76
     1
 77
     6
 78
     2
 67
     7
 79
     6
170
     0
171
     0
290
     0
174
     0
 93
        1
 44
0.0
173
     0
291
     0
 45
0.0
1001
ACAD
1000
AcDbSavedByObjectVersion
1070
     0
  0
VISUALSTYLE
  5
37
102
{ACAD_REACTORS
330
2A
102
}
102
{ACAD_XDICTIONARY
360
201
102
}
330
2A
100
AcDbVisualStyle
  2
Thicken
 70
    13
 71
     2
 72
     2
 73
     0
 90
        0
 40
0.6
 41
30.0
 62
     5
 63
     7
421
 16777215
 74
     1
 91
        4
 64
     7
 65
   257
 75
     1
175
     1
 42
1.0
 92
       12
 66
     7
 43
1.0
 76
     1
 77
     6
 78
     2
 67
     7
 79
     5
170
     0
171
     0
290
     0
174
     0
 93
        1
 44
0.0
173
     0
291
     1
 45
0.0
1001
ACAD
1000
AcDbSavedByObjectVersion
1070
     0
  0
VISUALSTYLE
  5
30
102
{ACAD_REACTORS
330
2A
102
}
102
{ACAD_XDICTIONARY
360
1F3
102
}
330
2A
100
AcDbVisualStyle
  2
Wireframe
 70
     5
 71
     0
 72
     2
 73
     0
 90
        0
 40
0.6
 41
30.0
 62
     5
 63
     7
421
 16777215
 74
     1
 91
        4
 64
     7
 65
   257
 75
     1
175
     1
 42
1.0
 92
        0
 66
   257
 43
1.0
 76
     1
 77
     6
 78
     2
 67
     7
 79
     3
170
     0
171
     0
290
     0
174
     0
 93
        1
 44
0.0
173
     0
291
     0
 45
0.0
1001
ACAD
1000
AcDbSavedByObjectVersion
1070
     0
  0
VISUALSTYLE
  5
40
102
{ACAD_REACTORS
330
2A
102
}
102
{ACAD_XDICTIONARY
360
213
102
}
330
2A
100
AcDbVisualStyle
  2
X-Ray
 70
    25
 71
     2
 72
     2
 73
     1
 90
        1
 40
0.5
 41
30.0
 62
     5
 63
     7
421
 16777215
 74
     1
 91
        0
 64
     7
 65
   257
 75
     1
175
     1
 42
1.0
 92
        8
 66
     7
 43
1.0
 76
     1
 77
     6
 78
     2
 67
     7
 79
     3
170
     0
171
     0
290
     0
174
     0
 93
       13
 44
0.0
173
     0
291
     0
 45
0.0
1001
ACAD
1000
AcDbSavedByObjectVersion
1070
     0
  0
DICTIONARYVAR
  5
1E6
102
{ACAD_REACTORS
330
1E5
102
}
330
1E5
100
DictionaryVariables
280
     0
  1
1:1
  0
DICTIONARYVAR
  5
227
102
{ACAD_REACTORS
330
1E5
102
}
330
1E5
100
DictionaryVariables
280
     0
  1
Standard
  0
DICTIONARYVAR
  5
226
102
{ACAD_REACTORS
330
1E5
102
}
330
1E5
100
DictionaryVariables
280
     0
  1
Standard
  0
DICTIONARYVAR
  5
1E7
102
{ACAD_REACTORS
330
1E5
102
}
330
1E5
100
DictionaryVariables
280
     0
  1
1
  0
DICTIONARYVAR
  5
1E8
102
{ACAD_REACTORS
330
1E5
102
}
330
1E5
100
DictionaryVariables
280
     0
  1
2
  0
DICTIONARY
  5
21B
330
45
100
AcDbDictionary
280
     1
281
     1
  3
ACAD_XREC_ROUNDTRIP
360
21C
  0
DICTIONARY
  5
219
330
44
100
AcDbDictionary
280
     1
281
     1
  3
ACAD_XREC_ROUNDTRIP
360
21A
  0
DICTIONARY
  5
21D
330
46
100
AcDbDictionary
280
     1
281
     1
  3
ACAD_XREC_ROUNDTRIP
360
21E
  0
DICTIONARY
  5
223
330
6C
100
AcDbDictionary
280
     1
281
     1
  3
ACAD_XREC_ROUNDTRIP
360
224
  0
DICTIONARY
  5
21F
330
6A
100
AcDbDictionary
280
     1
281
     1
  3
ACAD_ROUNDTRIP_2008_TABLESTYLE_CELLSTYLEMAP
360
221
  3
ACAD_XREC_ROUNDTRIP
360
220
  0
DICTIONARY
  5
1F1
330
2F
100
AcDbDictionary
280
     1
281
     1
  3
ACAD_XREC_ROUNDTRIP
360
1F2
  0
DICTIONARY
  5
1F7
330
32
100
AcDbDictionary
280
     1
281
     1
  3
ACAD_XREC_ROUNDTRIP
360
1F8
  0
DICTIONARY
  5
1FF
330
36
100
AcDbDictionary
280
     1
281
     1
  3
ACAD_XREC_ROUNDTRIP
360
200
  0
DICTIONARY
  5
207
330
3A
100
AcDbDictionary
280
     1
281
     1
  3
ACAD_XREC_ROUNDTRIP
360
208
  0
DICTIONARY
  5
1FB
330
34
100
AcDbDictionary
280
     1
281
     1
  3
ACAD_XREC_ROUNDTRIP
360
1FC
  0
DICTIONARY
  5
1FD
330
35
100
AcDbDictionary
280
     1
281
     1
  3
ACAD_XREC_ROUNDTRIP
360
1FE
  0
DICTIONARY
  5
20D
330
3D
100
AcDbDictionary
280
     1
281
     1
  3
ACAD_XREC_ROUNDTRIP
360
20E
  0
DICTIONARY
  5
205
330
39
100
AcDbDictionary
280
     1
281
     1
  3
ACAD_XREC_ROUNDTRIP
360
206
  0
DICTIONARY
  5
1E9
330
2B
100
AcDbDictionary
280
     1
281
     1
  3
ACAD_XREC_ROUNDTRIP
360
1EA
  0
DICTIONARY
  5
1EB
330
2C
100
AcDbDictionary
280
     1
281
     1
  3
ACAD_XREC_ROUNDTRIP
360
1EC
  0
DICTIONARY
  5
1ED
330
2D
100
AcDbDictionary
280
     1
281
     1
  3
ACAD_XREC_ROUNDTRIP
360
1EE
  0
DICTIONARY
  5
1EF
330
2E
100
AcDbDictionary
280
     1
281
     1
  3
ACAD_XREC_ROUNDTRIP
360
1F0
  0
DICTIONARY
  5
1F5
330
31
100
AcDbDictionary
280
     1
281
     1
  3
ACAD_XREC_ROUNDTRIP
360
1F6
  0
DICTIONARY
  5
209
330
3B
100
AcDbDictionary
280
     1
281
     1
  3
ACAD_XREC_ROUNDTRIP
360
20A
  0
DICTIONARY
  5
203
330
38
100
AcDbDictionary
280
     1
281
     1
  3
ACAD_XREC_ROUNDTRIP
360
204
  0
DICTIONARY
  5
20B
330
3C
100
AcDbDictionary
280
     1
281
     1
  3
ACAD_XREC_ROUNDTRIP
360
20C
  0
DICTIONARY
  5
1F9
330
33
100
AcDbDictionary
280
     1
281
     1
  3
ACAD_XREC_ROUNDTRIP
360
1FA
  0
DICTIONARY
  5
217
330
42
100
AcDbDictionary
280
     1
281
     1
  3
ACAD_XREC_ROUNDTRIP
360
218
  0
DICTIONARY
  5
215
330
41
100
AcDbDictionary
280
     1
281
     1
  3
ACAD_XREC_ROUNDTRIP
360
216
  0
DICTIONARY
  5
20F
330
3E
100
AcDbDictionary
280
     1
281
     1
  3
ACAD_XREC_ROUNDTRIP
360
210
  0
DICTIONARY
  5
211
330
3F
100
AcDbDictionary
280
     1
281
     1
  3
ACAD_XREC_ROUNDTRIP
360
212
  0
DICTIONARY
  5
201
330
37
100
AcDbDictionary
280
     1
281
     1
  3
ACAD_XREC_ROUNDTRIP
360
202
  0
DICTIONARY
  5
1F3
330
30
100
AcDbDictionary
280
     1
281
     1
  3
ACAD_XREC_ROUNDTRIP
360
1F4
  0
DICTIONARY
  5
213
330
40
100
AcDbDictionary
280
     1
281
     1
  3
ACAD_XREC_ROUNDTRIP
360
214
  0
XRECORD
  5
21C
102
{ACAD_REACTORS
330
21B
102
}
330
21B
100
AcDbXrecord
280
     1
102
MATERIAL
148
0.0
149
0.0
149
0.0
 93
        0
 94
      127
282
     0
 72
     1
 77
     1
171
     1
175
     1
179
     1
273
     0
  0
XRECORD
  5
21A
102
{ACAD_REACTORS
330
219
102
}
330
219
100
AcDbXrecord
280
     1
102
MATERIAL
148
0.0
149
0.0
149
0.0
 93
        0
 94
      127
282
     0
 72
     1
 77
     1
171
     1
175
     1
179
     1
273
     0
  0
XRECORD
  5
21E
102
{ACAD_REACTORS
330
21D
102
}
330
21D
100
AcDbXrecord
280
     1
102
MATERIAL
148
0.0
149
0.0
149
0.0
 93
        0
 94
      127
282
     0
 72
     1
 77
     1
171
     1
175
     1
179
     1
273
     0
  0
XRECORD
  5
224
102
{ACAD_REACTORS
330
223
102
}
330
223
100
AcDbXrecord
280
     1
102
ACAD_ROUNDTRIP_2010_MLEADER_STYLE
  0
CELLSTYLEMAP
  5
221
102
{ACAD_REACTORS
330
21F
102
}
330
21F
100
AcDbCellStyleMap
 90
        3
300
CELLSTYLE
  1
TABLEFORMAT_BEGIN
 90
        5
170
     1
 91
        0
 92
    32768
 62
   257
 93
        1
300
CONTENTFORMAT
  1
CONTENTFORMAT_BEGIN
 90
        0
 91
        0
 92
        4
 93
        0
300

 40
0.0
140
1.0
 94
        5
 62
     0
340
11
144
0.25
309
CONTENTFORMAT_END
171
     1
301
MARGIN
  1
CELLMARGIN_BEGIN
 40
0.06
 40
0.06
 40
0.06
 40
0.06
 40
0.06
 40
0.06
309
CELLMARGIN_END
 94
        6
 95
        1
302
GRIDFORMAT
  1
GRIDFORMAT_BEGIN
 90
        0
 91
        1
 62
     0
 92
       -2
340
14
 93
        0
 40
0.045
309
GRIDFORMAT_END
 95
        2
302
GRIDFORMAT
  1
GRIDFORMAT_BEGIN
 90
        0
 91
        1
 62
     0
 92
       -2
340
14
 93
        0
 40
0.045
309
GRIDFORMAT_END
 95
        4
302
GRIDFORMAT
  1
GRIDFORMAT_BEGIN
 90
        0
 91
        1
 62
     0
 92
       -2
340
14
 93
        0
 40
0.045
309
GRIDFORMAT_END
 95
        8
302
GRIDFORMAT
  1
GRIDFORMAT_BEGIN
 90
        0
 91
        1
 62
     0
 92
       -2
340
14
 93
        0
 40
0.045
309
GRIDFORMAT_END
 95
       16
302
GRIDFORMAT
  1
GRIDFORMAT_BEGIN
 90
        0
 91
        1
 62
     0
 92
       -2
340
14
 93
        0
 40
0.045
309
GRIDFORMAT_END
 95
       32
302
GRIDFORMAT
  1
GRIDFORMAT_BEGIN
 90
        0
 91
        1
 62
     0
 92
       -2
340
14
 93
        0
 40
0.045
309
GRIDFORMAT_END
309
TABLEFORMAT_END
  1
CELLSTYLE_BEGIN
 90
        1
 91
        1
300
_TITLE
309
CELLSTYLE_END
300
CELLSTYLE
  1
TABLEFORMAT_BEGIN
 90
        5
170
     1
 91
        0
 92
        0
 62
   257
 93
        1
300
CONTENTFORMAT
  1
CONTENTFORMAT_BEGIN
 90
        0
 91
        0
 92
        4
 93
        0
300

 40
0.0
140
1.0
 94
        5
 62
     0
340
11
144
0.18
309
CONTENTFORMAT_END
171
     1
301
MARGIN
  1
CELLMARGIN_BEGIN
 40
0.06
 40
0.06
 40
0.06
 40
0.06
 40
0.06
 40
0.06
309
CELLMARGIN_END
 94
        6
 95
        1
302
GRIDFORMAT
  1
GRIDFORMAT_BEGIN
 90
        0
 91
        1
 62
     0
 92
       -2
340
14
 93
        0
 40
0.045
309
GRIDFORMAT_END
 95
        2
302
GRIDFORMAT
  1
GRIDFORMAT_BEGIN
 90
        0
 91
        1
 62
     0
 92
       -2
340
14
 93
        0
 40
0.045
309
GRIDFORMAT_END
 95
        4
302
GRIDFORMAT
  1
GRIDFORMAT_BEGIN
 90
        0
 91
        1
 62
     0
 92
       -2
340
14
 93
        0
 40
0.045
309
GRIDFORMAT_END
 95
        8
302
GRIDFORMAT
  1
GRIDFORMAT_BEGIN
 90
        0
 91
        1
 62
     0
 92
       -2
340
14
 93
        0
 40
0.045
309
GRIDFORMAT_END
 95
       16
302
GRIDFORMAT
  1
GRIDFORMAT_BEGIN
 90
        0
 91
        1
 62
     0
 92
       -2
340
14
 93
        0
 40
0.045
309
GRIDFORMAT_END
 95
       32
302
GRIDFORMAT
  1
GRIDFORMAT_BEGIN
 90
        0
 91
        1
 62
     0
 92
       -2
340
14
 93
        0
 40
0.045
309
GRIDFORMAT_END
309
TABLEFORMAT_END
  1
CELLSTYLE_BEGIN
 90
        2
 91
        1
300
_HEADER
309
CELLSTYLE_END
300
CELLSTYLE
  1
TABLEFORMAT_BEGIN
 90
        5
170
     1
 91
        0
 92
        0
 62
   257
 93
        1
300
CONTENTFORMAT
  1
CONTENTFORMAT_BEGIN
 90
        0
 91
        0
 92
        4
 93
        0
300

 40
0.0
140
1.0
 94
        2
 62
     0
340
11
144
0.18
309
CONTENTFORMAT_END
171
     1
301
MARGIN
  1
CELLMARGIN_BEGIN
 40
0.06
 40
0.06
 40
0.06
 40
0.06
 40
0.06
 40
0.06
309
CELLMARGIN_END
 94
        6
 95
        1
302
GRIDFORMAT
  1
GRIDFORMAT_BEGIN
 90
        0
 91
        1
 62
     0
 92
       -2
340
14
 93
        0
 40
0.045
309
GRIDFORMAT_END
 95
        2
302
GRIDFORMAT
  1
GRIDFORMAT_BEGIN
 90
        0
 91
        1
 62
     0
 92
       -2
340
14
 93
        0
 40
0.045
309
GRIDFORMAT_END
 95
        4
302
GRIDFORMAT
  1
GRIDFORMAT_BEGIN
 90
        0
 91
        1
 62
     0
 92
       -2
340
14
 93
        0
 40
0.045
309
GRIDFORMAT_END
 95
        8
302
GRIDFORMAT
  1
GRIDFORMAT_BEGIN
 90
        0
 91
        1
 62
     0
 92
       -2
340
14
 93
        0
 40
0.045
309
GRIDFORMAT_END
 95
       16
302
GRIDFORMAT
  1
GRIDFORMAT_BEGIN
 90
        0
 91
        1
 62
     0
 92
       -2
340
14
 93
        0
 40
0.045
309
GRIDFORMAT_END
 95
       32
302
GRIDFORMAT
  1
GRIDFORMAT_BEGIN
 90
        0
 91
        1
 62
     0
 92
       -2
340
14
 93
        0
 40
0.045
309
GRIDFORMAT_END
309
TABLEFORMAT_END
  1
CELLSTYLE_BEGIN
 90
        3
 91
        2
300
_DATA
309
CELLSTYLE_END
  0
XRECORD
  5
220
102
{ACAD_REACTORS
330
21F
102
}
330
21F
100
AcDbXrecord
280
     1
102
ACAD_ROUNDTRIP_PRE2007_TABLESTYLE
 90
        4
 91
        0
  1

 92
        4
 93
        0
  2

 94
        4
 95
        0
  3

  0
XRECORD
  5
1F2
102
{ACAD_REACTORS
330
1F1
102
}
330
1F1
100
AcDbXrecord
280
     1
102
RTVSPropertyOp0
 70
     1
102
RTVSPropertyOp1
 70
     1
102
RTVSPropertyOp2
 70
     1
102
RTVSPropertyOp3
 70
     1
102
RTVSPropertyOp4
 70
     1
102
RTVSPropertyOp5
 70
     1
102
RTVSPropertyOp6
 70
     1
102
RTVSPropertyOp7
 70
     1
102
RTVSPropertyOp8
 70
     1
102
RTVSPropertyOp9
 70
     1
102
RTVSPropertyOp10
 70
     1
102
RTVSPropertyOp11
 70
     1
102
RTVSPropertyOp12
 70
     1
102
RTVSPropertyOp13
 70
     1
102
RTVSPropertyOp14
 70
     1
102
RTVSPropertyOp15
 70
     1
102
RTVSPropertyOp16
 70
     1
102
RTVSPropertyOp17
 70
     1
102
RTVSPropertyOp18
 70
     1
102
RTVSPropertyOp19
 70
     1
102
RTVSPropertyOp20
 70
     1
102
RTVSPropertyOp21
 70
     1
102
RTVSPropertyOp22
 70
     1
102
RTVSPropertyOp23
 70
     1
102
RTVSPropertyOp24
 70
     1
102
RTVSPropertyOp25
 70
     1
102
RTVSPropertyOp26
 70
     1
102
RTVSPropertyOp27
 70
     1
102
RTVSPropertyOp28
 70
     1
102
RTVSPropertyOp29
 70
     1
102
RTVSPropertyOp30
 70
     1
102
RTVSPropertyOp31
 70
     1
102
RTVSPropertyOp32
 70
     1
102
RTVSPropertyOp33
 70
     1
102
RTVSPropertyOp34
 70
     1
102
RTVSPropertyOp35
 70
     1
102
RTVSPropertyOp36
 70
     1
102
RTVSPropertyOp37
 70
     1
102
RTVSPropertyOp38
 70
     1
102
RTVSPropertyOp39
 70
     1
102
RTVSPropertyOp40
 70
     1
102
RTVSPropertyOp41
 70
     1
102
RTVSPropertyOp42
 70
     1
102
RTVSPropertyOp43
 70
     1
102
RTVSPropertyOp44
 70
     1
102
RTVSPropertyOp45
 70
     1
102
RTVSPropertyOp46
 70
     1
102
RTVSPropertyOp47
 70
     1
102
RTVSPropertyOp48
 70
     1
102
RTVSPropertyOp49
 70
     1
102
RTVSPropertyOp50
 70
     1
102
RTVSPropertyOp51
 70
     0
102
RTVSPropertyOp52
 70
     0
102
RTVSPropertyOp53
 70
     1
102
RTVSPropertyOp54
 70
     1
102
RTVSPropertyOp55
 70
     1
102
RTVSPropertyOp56
 70
     1
102
RTVSPropertyOp57
 70
     1
102
RTVSPost2010Prop28
280
     1
102
RTVSPost2010PropOp28
 70
     1
102
RTVSPost2010Prop29
280
     1
102
RTVSPost2010PropOp29
 70
     1
102
RTVSPost2010Prop30
280
     0
102
RTVSPost2010PropOp30
 70
     1
102
RTVSPost2010Prop31
280
     0
102
RTVSPost2010PropOp31
 70
     1
102
RTVSPost2010Prop32
280
     0
102
RTVSPost2010PropOp32
 70
     1
102
RTVSPost2010Prop33
280
     0
102
RTVSPost2010PropOp33
 70
     1
102
RTVSPost2010Prop34
280
     0
102
RTVSPost2010PropOp34
 70
     1
102
RTVSPost2010Prop35
280
     0
102
RTVSPost2010PropOp35
 70
     1
102
RTVSPost2010Prop36
280
     0
102
RTVSPost2010PropOp36
 70
     1
102
RTVSPost2010Prop37
 90
       50
102
RTVSPost2010PropOp37
 70
     1
102
RTVSPost2010Prop38
140
0.0
102
RTVSPost2010PropOp38
 70
     1
102
RTVSPost2010Prop39
140
1.0
102
RTVSPost2010PropOp39
 70
     1
102
RTVSPost2010Prop40
 90
        0
102
RTVSPost2010PropOp40
 70
     1
102
RTVSPost2010Prop41ColorIndex
 90
       18
102
RTVSPost2010Prop41ColorRGB
 90
        0
102
RTVSPost2010PropOp41
 70
     1
102
RTVSPost2010Prop42
 90
       50
102
RTVSPost2010PropOp42
 70
     1
102
RTVSPost2010Prop43
 90
        3
102
RTVSPost2010PropOp43
 70
     1
102
RTVSPost2010Prop44ColorIndex
 90
        5
102
RTVSPost2010Prop44ColorRGB
 90
      255
102
RTVSPost2010PropOp44
 70
     1
102
RTVSPost2010Prop45
280
     0
102
RTVSPost2010PropOp45
 70
     1
102
RTVSPost2010Prop46
 90
       50
102
RTVSPost2010PropOp46
 70
     1
102
RTVSPost2010Prop47
 90
       50
102
RTVSPost2010PropOp47
 70
     1
102
RTVSPost2010Prop48
 90
       50
102
RTVSPost2010PropOp48
 70
     1
102
RTVSPost2010Prop49
280
     0
102
RTVSPost2010PropOp49
 70
     1
102
RTVSPost2010Prop50
 90
       50
102
RTVSPost2010PropOp50
 70
     1
102
RTVSPost2010Prop51ColorIndex
 90
      256
102
RTVSPost2010Prop51ColorRGB
 90
-16777216
102
RTVSPost2010PropOp51
 70
     0
102
RTVSPost2010Prop52
140
1.0
102
RTVSPost2010PropOp52
 70
     0
102
RTVSPost2010Prop53
 90
        2
102
RTVSPost2010PropOp53
 70
     1
102
RTVSPost2010Prop54
  1
strokes_ogs.tif
102
RTVSPost2010PropOp54
 70
     1
102
RTVSPost2010Prop55
280
     0
102
RTVSPost2010PropOp55
 70
     1
102
RTVSPost2010Prop56
140
1.0
102
RTVSPost2010PropOp56
 70
     1
102
RTVSPost2010Prop57
140
1.0
102
RTVSPost2010PropOp57
 70
     1
  0
XRECORD
  5
1F8
102
{ACAD_REACTORS
330
1F7
102
}
330
1F7
100
AcDbXrecord
280
     1
102
RTVSPropertyOp0
 70
     1
102
RTVSPropertyOp1
 70
     1
102
RTVSPropertyOp2
 70
     1
102
RTVSPropertyOp3
 70
     1
102
RTVSPropertyOp4
 70
     1
102
RTVSPropertyOp5
 70
     1
102
RTVSPropertyOp6
 70
     1
102
RTVSPropertyOp7
 70
     1
102
RTVSPropertyOp8
 70
     1
102
RTVSPropertyOp9
 70
     1
102
RTVSPropertyOp10
 70
     1
102
RTVSPropertyOp11
 70
     1
102
RTVSPropertyOp12
 70
     1
102
RTVSPropertyOp13
 70
     1
102
RTVSPropertyOp14
 70
     1
102
RTVSPropertyOp15
 70
     1
102
RTVSPropertyOp16
 70
     1
102
RTVSPropertyOp17
 70
     1
102
RTVSPropertyOp18
 70
     1
102
RTVSPropertyOp19
 70
     1
102
RTVSPropertyOp20
 70
     1
102
RTVSPropertyOp21
 70
     1
102
RTVSPropertyOp22
 70
     1
102
RTVSPropertyOp23
 70
     1
102
RTVSPropertyOp24
 70
     1
102
RTVSPropertyOp25
 70
     1
102
RTVSPropertyOp26
 70
     1
102
RTVSPropertyOp27
 70
     1
102
RTVSPropertyOp28
 70
     1
102
RTVSPropertyOp29
 70
     1
102
RTVSPropertyOp30
 70
     1
102
RTVSPropertyOp31
 70
     1
102
RTVSPropertyOp32
 70
     1
102
RTVSPropertyOp33
 70
     1
102
RTVSPropertyOp34
 70
     1
102
RTVSPropertyOp35
 70
     1
102
RTVSPropertyOp36
 70
     1
102
RTVSPropertyOp37
 70
     1
102
RTVSPropertyOp38
 70
     1
102
RTVSPropertyOp39
 70
     1
102
RTVSPropertyOp40
 70
     1
102
RTVSPropertyOp41
 70
     1
102
RTVSPropertyOp42
 70
     1
102
RTVSPropertyOp43
 70
     1
102
RTVSPropertyOp44
 70
     1
102
RTVSPropertyOp45
 70
     1
102
RTVSPropertyOp46
 70
     1
102
RTVSPropertyOp47
 70
     1
102
RTVSPropertyOp48
 70
     1
102
RTVSPropertyOp49
 70
     1
102
RTVSPropertyOp50
 70
     1
102
RTVSPropertyOp51
 70
     0
102
RTVSPropertyOp52
 70
     0
102
RTVSPropertyOp53
 70
     1
102
RTVSPropertyOp54
 70
     1
102
RTVSPropertyOp55
 70
     1
102
RTVSPropertyOp56
 70
     1
102
RTVSPropertyOp57
 70
     1
102
RTVSPost2010Prop28
280
     0
102
RTVSPost2010PropOp28
 70
     1
102
RTVSPost2010Prop29
280
     1
102
RTVSPost2010PropOp29
 70
     1
102
RTVSPost2010Prop30
280
     1
102
RTVSPost2010PropOp30
 70
     1
102
RTVSPost2010Prop31
280
     0
102
RTVSPost2010PropOp31
 70
     1
102
RTVSPost2010Prop32
280
     0
102
RTVSPost2010PropOp32
 70
     1
102
RTVSPost2010Prop33
280
     0
102
RTVSPost2010PropOp33
 70
     1
102
RTVSPost2010Prop34
280
     0
102
RTVSPost2010PropOp34
 70
     1
102
RTVSPost2010Prop35
280
     0
102
RTVSPost2010PropOp35
 70
     1
102
RTVSPost2010Prop36
280
     0
102
RTVSPost2010PropOp36
 70
     1
102
RTVSPost2010Prop37
 90
       50
102
RTVSPost2010PropOp37
 70
     1
102
RTVSPost2010Prop38
140
0.0
102
RTVSPost2010PropOp38
 70
     1
102
RTVSPost2010Prop39
140
1.0
102
RTVSPost2010PropOp39
 70
     1
102
RTVSPost2010Prop40
 90
        0
102
RTVSPost2010PropOp40
 70
     1
102
RTVSPost2010Prop41ColorIndex
 90
       18
102
RTVSPost2010Prop41ColorRGB
 90
        0
102
RTVSPost2010PropOp41
 70
     1
102
RTVSPost2010Prop42
 90
       50
102
RTVSPost2010PropOp42
 70
     1
102
RTVSPost2010Prop43
 90
        3
102
RTVSPost2010PropOp43
 70
     1
102
RTVSPost2010Prop44ColorIndex
 90
        5
102
RTVSPost2010Prop44ColorRGB
 90
      255
102
RTVSPost2010PropOp44
 70
     1
102
RTVSPost2010Prop45
280
     0
102
RTVSPost2010PropOp45
 70
     1
102
RTVSPost2010Prop46
 90
       50
102
RTVSPost2010PropOp46
 70
     1
102
RTVSPost2010Prop47
 90
       50
102
RTVSPost2010PropOp47
 70
     1
102
RTVSPost2010Prop48
 90
       50
102
RTVSPost2010PropOp48
 70
     1
102
RTVSPost2010Prop49
280
     0
102
RTVSPost2010PropOp49
 70
     1
102
RTVSPost2010Prop50
 90
       50
102
RTVSPost2010PropOp50
 70
     1
102
RTVSPost2010Prop51ColorIndex
 90
      256
102
RTVSPost2010Prop51ColorRGB
 90
-16777216
102
RTVSPost2010PropOp51
 70
     0
102
RTVSPost2010Prop52
140
1.0
102
RTVSPost2010PropOp52
 70
     0
102
RTVSPost2010Prop53
 90
        2
102
RTVSPost2010PropOp53
 70
     1
102
RTVSPost2010Prop54
  1
strokes_ogs.tif
102
RTVSPost2010PropOp54
 70
     1
102
RTVSPost2010Prop55
280
     0
102
RTVSPost2010PropOp55
 70
     1
102
RTVSPost2010Prop56
140
1.0
102
RTVSPost2010PropOp56
 70
     1
102
RTVSPost2010Prop57
140
1.0
102
RTVSPost2010PropOp57
 70
     1
  0
XRECORD
  5
200
102
{ACAD_REACTORS
330
1FF
102
}
330
1FF
100
AcDbXrecord
280
     1
102
RTVSPropertyOp0
 70
     1
102
RTVSPropertyOp1
 70
     1
102
RTVSPropertyOp2
 70
     1
102
RTVSPropertyOp3
 70
     1
102
RTVSPropertyOp4
 70
     1
102
RTVSPropertyOp5
 70
     1
102
RTVSPropertyOp6
 70
     1
102
RTVSPropertyOp7
 70
     1
102
RTVSPropertyOp8
 70
     1
102
RTVSPropertyOp9
 70
     1
102
RTVSPropertyOp10
 70
     1
102
RTVSPropertyOp11
 70
     1
102
RTVSPropertyOp12
 70
     1
102
RTVSPropertyOp13
 70
     1
102
RTVSPropertyOp14
 70
     1
102
RTVSPropertyOp15
 70
     1
102
RTVSPropertyOp16
 70
     1
102
RTVSPropertyOp17
 70
     1
102
RTVSPropertyOp18
 70
     1
102
RTVSPropertyOp19
 70
     1
102
RTVSPropertyOp20
 70
     1
102
RTVSPropertyOp21
 70
     1
102
RTVSPropertyOp22
 70
     1
102
RTVSPropertyOp23
 70
     1
102
RTVSPropertyOp24
 70
     1
102
RTVSPropertyOp25
 70
     1
102
RTVSPropertyOp26
 70
     1
102
RTVSPropertyOp27
 70
     1
102
RTVSPropertyOp28
 70
     1
102
RTVSPropertyOp29
 70
     1
102
RTVSPropertyOp30
 70
     1
102
RTVSPropertyOp31
 70
     1
102
RTVSPropertyOp32
 70
     1
102
RTVSPropertyOp33
 70
     1
102
RTVSPropertyOp34
 70
     1
102
RTVSPropertyOp35
 70
     1
102
RTVSPropertyOp36
 70
     1
102
RTVSPropertyOp37
 70
     1
102
RTVSPropertyOp38
 70
     1
102
RTVSPropertyOp39
 70
     1
102
RTVSPropertyOp40
 70
     1
102
RTVSPropertyOp41
 70
     1
102
RTVSPropertyOp42
 70
     1
102
RTVSPropertyOp43
 70
     1
102
RTVSPropertyOp44
 70
     1
102
RTVSPropertyOp45
 70
     1
102
RTVSPropertyOp46
 70
     1
102
RTVSPropertyOp47
 70
     1
102
RTVSPropertyOp48
 70
     1
102
RTVSPropertyOp49
 70
     1
102
RTVSPropertyOp50
 70
     1
102
RTVSPropertyOp51
 70
     0
102
RTVSPropertyOp52
 70
     0
102
RTVSPropertyOp53
 70
     1
102
RTVSPropertyOp54
 70
     1
102
RTVSPropertyOp55
 70
     1
102
RTVSPropertyOp56
 70
     1
102
RTVSPropertyOp57
 70
     1
102
RTVSPost2010Prop28
280
     0
102
RTVSPost2010PropOp28
 70
     1
102
RTVSPost2010Prop29
280
     1
102
RTVSPost2010PropOp29
 70
     1
102
RTVSPost2010Prop30
280
     1
102
RTVSPost2010PropOp30
 70
     1
102
RTVSPost2010Prop31
280
     0
102
RTVSPost2010PropOp31
 70
     1
102
RTVSPost2010Prop32
280
     0
102
RTVSPost2010PropOp32
 70
     1
102
RTVSPost2010Prop33
280
     0
102
RTVSPost2010PropOp33
 70
     1
102
RTVSPost2010Prop34
280
     0
102
RTVSPost2010PropOp34
 70
     1
102
RTVSPost2010Prop35
280
     0
102
RTVSPost2010PropOp35
 70
     1
102
RTVSPost2010Prop36
280
     0
102
RTVSPost2010PropOp36
 70
     1
102
RTVSPost2010Prop37
 90
       50
102
RTVSPost2010PropOp37
 70
     1
102
RTVSPost2010Prop38
140
0.0
102
RTVSPost2010PropOp38
 70
     1
102
RTVSPost2010Prop39
140
1.0
102
RTVSPost2010PropOp39
 70
     1
102
RTVSPost2010Prop40
 90
        0
102
RTVSPost2010PropOp40
 70
     1
102
RTVSPost2010Prop41ColorIndex
 90
       18
102
RTVSPost2010Prop41ColorRGB
 90
        0
102
RTVSPost2010PropOp41
 70
     1
102
RTVSPost2010Prop42
 90
       50
102
RTVSPost2010PropOp42
 70
     1
102
RTVSPost2010Prop43
 90
        3
102
RTVSPost2010PropOp43
 70
     1
102
RTVSPost2010Prop44ColorIndex
 90
        5
102
RTVSPost2010Prop44ColorRGB
 90
      255
102
RTVSPost2010PropOp44
 70
     1
102
RTVSPost2010Prop45
280
     0
102
RTVSPost2010PropOp45
 70
     1
102
RTVSPost2010Prop46
 90
       50
102
RTVSPost2010PropOp46
 70
     1
102
RTVSPost2010Prop47
 90
       50
102
RTVSPost2010PropOp47
 70
     1
102
RTVSPost2010Prop48
 90
       50
102
RTVSPost2010PropOp48
 70
     1
102
RTVSPost2010Prop49
280
     0
102
RTVSPost2010PropOp49
 70
     1
102
RTVSPost2010Prop50
 90
       50
102
RTVSPost2010PropOp50
 70
     1
102
RTVSPost2010Prop51ColorIndex
 90
      256
102
RTVSPost2010Prop51ColorRGB
 90
-16777216
102
RTVSPost2010PropOp51
 70
     0
102
RTVSPost2010Prop52
140
1.0
102
RTVSPost2010PropOp52
 70
     0
102
RTVSPost2010Prop53
 90
        2
102
RTVSPost2010PropOp53
 70
     1
102
RTVSPost2010Prop54
  1
strokes_ogs.tif
102
RTVSPost2010PropOp54
 70
     1
102
RTVSPost2010Prop55
280
     0
102
RTVSPost2010PropOp55
 70
     1
102
RTVSPost2010Prop56
140
1.0
102
RTVSPost2010PropOp56
 70
     1
102
RTVSPost2010Prop57
140
1.0
102
RTVSPost2010PropOp57
 70
     1
  0
XRECORD
  5
208
102
{ACAD_REACTORS
330
207
102
}
330
207
100
AcDbXrecord
280
     1
102
RTVSPropertyOp0
 70
     1
102
RTVSPropertyOp1
 70
     1
102
RTVSPropertyOp2
 70
     1
102
RTVSPropertyOp3
 70
     1
102
RTVSPropertyOp4
 70
     1
102
RTVSPropertyOp5
 70
     1
102
RTVSPropertyOp6
 70
     1
102
RTVSPropertyOp7
 70
     1
102
RTVSPropertyOp8
 70
     1
102
RTVSPropertyOp9
 70
     1
102
RTVSPropertyOp10
 70
     1
102
RTVSPropertyOp11
 70
     1
102
RTVSPropertyOp12
 70
     1
102
RTVSPropertyOp13
 70
     1
102
RTVSPropertyOp14
 70
     1
102
RTVSPropertyOp15
 70
     1
102
RTVSPropertyOp16
 70
     1
102
RTVSPropertyOp17
 70
     1
102
RTVSPropertyOp18
 70
     1
102
RTVSPropertyOp19
 70
     1
102
RTVSPropertyOp20
 70
     1
102
RTVSPropertyOp21
 70
     1
102
RTVSPropertyOp22
 70
     1
102
RTVSPropertyOp23
 70
     1
102
RTVSPropertyOp24
 70
     1
102
RTVSPropertyOp25
 70
     1
102
RTVSPropertyOp26
 70
     1
102
RTVSPropertyOp27
 70
     1
102
RTVSPropertyOp28
 70
     1
102
RTVSPropertyOp29
 70
     1
102
RTVSPropertyOp30
 70
     1
102
RTVSPropertyOp31
 70
     1
102
RTVSPropertyOp32
 70
     1
102
RTVSPropertyOp33
 70
     1
102
RTVSPropertyOp34
 70
     1
102
RTVSPropertyOp35
 70
     1
102
RTVSPropertyOp36
 70
     1
102
RTVSPropertyOp37
 70
     1
102
RTVSPropertyOp38
 70
     1
102
RTVSPropertyOp39
 70
     1
102
RTVSPropertyOp40
 70
     1
102
RTVSPropertyOp41
 70
     1
102
RTVSPropertyOp42
 70
     1
102
RTVSPropertyOp43
 70
     1
102
RTVSPropertyOp44
 70
     1
102
RTVSPropertyOp45
 70
     1
102
RTVSPropertyOp46
 70
     1
102
RTVSPropertyOp47
 70
     1
102
RTVSPropertyOp48
 70
     1
102
RTVSPropertyOp49
 70
     1
102
RTVSPropertyOp50
 70
     1
102
RTVSPropertyOp51
 70
     0
102
RTVSPropertyOp52
 70
     0
102
RTVSPropertyOp53
 70
     1
102
RTVSPropertyOp54
 70
     1
102
RTVSPropertyOp55
 70
     1
102
RTVSPropertyOp56
 70
     1
102
RTVSPropertyOp57
 70
     1
102
RTVSPost2010Prop28
280
     0
102
RTVSPost2010PropOp28
 70
     1
102
RTVSPost2010Prop29
280
     1
102
RTVSPost2010PropOp29
 70
     1
102
RTVSPost2010Prop30
280
     1
102
RTVSPost2010PropOp30
 70
     1
102
RTVSPost2010Prop31
280
     0
102
RTVSPost2010PropOp31
 70
     1
102
RTVSPost2010Prop32
280
     0
102
RTVSPost2010PropOp32
 70
     1
102
RTVSPost2010Prop33
280
     0
102
RTVSPost2010PropOp33
 70
     1
102
RTVSPost2010Prop34
280
     0
102
RTVSPost2010PropOp34
 70
     1
102
RTVSPost2010Prop35
280
     0
102
RTVSPost2010PropOp35
 70
     1
102
RTVSPost2010Prop36
280
     0
102
RTVSPost2010PropOp36
 70
     1
102
RTVSPost2010Prop37
 90
       50
102
RTVSPost2010PropOp37
 70
     1
102
RTVSPost2010Prop38
140
0.0
102
RTVSPost2010PropOp38
 70
     1
102
RTVSPost2010Prop39
140
1.0
102
RTVSPost2010PropOp39
 70
     1
102
RTVSPost2010Prop40
 90
        0
102
RTVSPost2010PropOp40
 70
     1
102
RTVSPost2010Prop41ColorIndex
 90
       18
102
RTVSPost2010Prop41ColorRGB
 90
        0
102
RTVSPost2010PropOp41
 70
     1
102
RTVSPost2010Prop42
 90
       50
102
RTVSPost2010PropOp42
 70
     1
102
RTVSPost2010Prop43
 90
        3
102
RTVSPost2010PropOp43
 70
     1
102
RTVSPost2010Prop44ColorIndex
 90
        5
102
RTVSPost2010Prop44ColorRGB
 90
      255
102
RTVSPost2010PropOp44
 70
     1
102
RTVSPost2010Prop45
280
     0
102
RTVSPost2010PropOp45
 70
     1
102
RTVSPost2010Prop46
 90
       50
102
RTVSPost2010PropOp46
 70
     1
102
RTVSPost2010Prop47
 90
       50
102
RTVSPost2010PropOp47
 70
     1
102
RTVSPost2010Prop48
 90
       50
102
RTVSPost2010PropOp48
 70
     1
102
RTVSPost2010Prop49
280
     0
102
RTVSPost2010PropOp49
 70
     1
102
RTVSPost2010Prop50
 90
       50
102
RTVSPost2010PropOp50
 70
     1
102
RTVSPost2010Prop51ColorIndex
 90
      256
102
RTVSPost2010Prop51ColorRGB
 90
-16777216
102
RTVSPost2010PropOp51
 70
     0
102
RTVSPost2010Prop52
140
1.0
102
RTVSPost2010PropOp52
 70
     0
102
RTVSPost2010Prop53
 90
        2
102
RTVSPost2010PropOp53
 70
     1
102
RTVSPost2010Prop54
  1
strokes_ogs.tif
102
RTVSPost2010PropOp54
 70
     1
102
RTVSPost2010Prop55
280
     0
102
RTVSPost2010PropOp55
 70
     1
102
RTVSPost2010Prop56
140
1.0
102
RTVSPost2010PropOp56
 70
     1
102
RTVSPost2010Prop57
140
1.0
102
RTVSPost2010PropOp57
 70
     1
  0
XRECORD
  5
1FC
102
{ACAD_REACTORS
330
1FB
102
}
330
1FB
100
AcDbXrecord
280
     1
102
RTVSPropertyOp0
 70
     1
102
RTVSPropertyOp1
 70
     1
102
RTVSPropertyOp2
 70
     1
102
RTVSPropertyOp3
 70
     1
102
RTVSPropertyOp4
 70
     1
102
RTVSPropertyOp5
 70
     1
102
RTVSPropertyOp6
 70
     1
102
RTVSPropertyOp7
 70
     1
102
RTVSPropertyOp8
 70
     1
102
RTVSPropertyOp9
 70
     1
102
RTVSPropertyOp10
 70
     1
102
RTVSPropertyOp11
 70
     1
102
RTVSPropertyOp12
 70
     1
102
RTVSPropertyOp13
 70
     1
102
RTVSPropertyOp14
 70
     1
102
RTVSPropertyOp15
 70
     1
102
RTVSPropertyOp16
 70
     1
102
RTVSPropertyOp17
 70
     1
102
RTVSPropertyOp18
 70
     1
102
RTVSPropertyOp19
 70
     1
102
RTVSPropertyOp20
 70
     1
102
RTVSPropertyOp21
 70
     1
102
RTVSPropertyOp22
 70
     1
102
RTVSPropertyOp23
 70
     1
102
RTVSPropertyOp24
 70
     1
102
RTVSPropertyOp25
 70
     1
102
RTVSPropertyOp26
 70
     1
102
RTVSPropertyOp27
 70
     1
102
RTVSPropertyOp28
 70
     1
102
RTVSPropertyOp29
 70
     1
102
RTVSPropertyOp30
 70
     1
102
RTVSPropertyOp31
 70
     1
102
RTVSPropertyOp32
 70
     1
102
RTVSPropertyOp33
 70
     1
102
RTVSPropertyOp34
 70
     1
102
RTVSPropertyOp35
 70
     1
102
RTVSPropertyOp36
 70
     1
102
RTVSPropertyOp37
 70
     1
102
RTVSPropertyOp38
 70
     1
102
RTVSPropertyOp39
 70
     1
102
RTVSPropertyOp40
 70
     1
102
RTVSPropertyOp41
 70
     1
102
RTVSPropertyOp42
 70
     1
102
RTVSPropertyOp43
 70
     1
102
RTVSPropertyOp44
 70
     1
102
RTVSPropertyOp45
 70
     1
102
RTVSPropertyOp46
 70
     1
102
RTVSPropertyOp47
 70
     1
102
RTVSPropertyOp48
 70
     1
102
RTVSPropertyOp49
 70
     1
102
RTVSPropertyOp50
 70
     1
102
RTVSPropertyOp51
 70
     0
102
RTVSPropertyOp52
 70
     0
102
RTVSPropertyOp53
 70
     1
102
RTVSPropertyOp54
 70
     1
102
RTVSPropertyOp55
 70
     1
102
RTVSPropertyOp56
 70
     1
102
RTVSPropertyOp57
 70
     1
102
RTVSPost2010Prop28
280
     0
102
RTVSPost2010PropOp28
 70
     1
102
RTVSPost2010Prop29
280
     1
102
RTVSPost2010PropOp29
 70
     1
102
RTVSPost2010Prop30
280
     1
102
RTVSPost2010PropOp30
 70
     1
102
RTVSPost2010Prop31
280
     0
102
RTVSPost2010PropOp31
 70
     1
102
RTVSPost2010Prop32
280
     0
102
RTVSPost2010PropOp32
 70
     1
102
RTVSPost2010Prop33
280
     0
102
RTVSPost2010PropOp33
 70
     1
102
RTVSPost2010Prop34
280
     0
102
RTVSPost2010PropOp34
 70
     1
102
RTVSPost2010Prop35
280
     0
102
RTVSPost2010PropOp35
 70
     1
102
RTVSPost2010Prop36
280
     0
102
RTVSPost2010PropOp36
 70
     1
102
RTVSPost2010Prop37
 90
       50
102
RTVSPost2010PropOp37
 70
     1
102
RTVSPost2010Prop38
140
0.0
102
RTVSPost2010PropOp38
 70
     1
102
RTVSPost2010Prop39
140
1.0
102
RTVSPost2010PropOp39
 70
     1
102
RTVSPost2010Prop40
 90
        0
102
RTVSPost2010PropOp40
 70
     1
102
RTVSPost2010Prop41ColorIndex
 90
       18
102
RTVSPost2010Prop41ColorRGB
 90
        0
102
RTVSPost2010PropOp41
 70
     1
102
RTVSPost2010Prop42
 90
       50
102
RTVSPost2010PropOp42
 70
     1
102
RTVSPost2010Prop43
 90
        3
102
RTVSPost2010PropOp43
 70
     1
102
RTVSPost2010Prop44ColorIndex
 90
        5
102
RTVSPost2010Prop44ColorRGB
 90
      255
102
RTVSPost2010PropOp44
 70
     1
102
RTVSPost2010Prop45
280
     0
102
RTVSPost2010PropOp45
 70
     1
102
RTVSPost2010Prop46
 90
       50
102
RTVSPost2010PropOp46
 70
     1
102
RTVSPost2010Prop47
 90
       50
102
RTVSPost2010PropOp47
 70
     1
102
RTVSPost2010Prop48
 90
       50
102
RTVSPost2010PropOp48
 70
     1
102
RTVSPost2010Prop49
280
     0
102
RTVSPost2010PropOp49
 70
     1
102
RTVSPost2010Prop50
 90
       50
102
RTVSPost2010PropOp50
 70
     1
102
RTVSPost2010Prop51ColorIndex
 90
      256
102
RTVSPost2010Prop51ColorRGB
 90
-16777216
102
RTVSPost2010PropOp51
 70
     0
102
RTVSPost2010Prop52
140
1.0
102
RTVSPost2010PropOp52
 70
     0
102
RTVSPost2010Prop53
 90
        2
102
RTVSPost2010PropOp53
 70
     1
102
RTVSPost2010Prop54
  1
strokes_ogs.tif
102
RTVSPost2010PropOp54
 70
     1
102
RTVSPost2010Prop55
280
     0
102
RTVSPost2010PropOp55
 70
     1
102
RTVSPost2010Prop56
140
1.0
102
RTVSPost2010PropOp56
 70
     1
102
RTVSPost2010Prop57
140
1.0
102
RTVSPost2010PropOp57
 70
     1
  0
XRECORD
  5
1FE
102
{ACAD_REACTORS
330
1FD
102
}
330
1FD
100
AcDbXrecord
280
     1
102
RTVSPropertyOp0
 70
     1
102
RTVSPropertyOp1
 70
     1
102
RTVSPropertyOp2
 70
     1
102
RTVSPropertyOp3
 70
     1
102
RTVSPropertyOp4
 70
     1
102
RTVSPropertyOp5
 70
     1
102
RTVSPropertyOp6
 70
     1
102
RTVSPropertyOp7
 70
     1
102
RTVSPropertyOp8
 70
     1
102
RTVSPropertyOp9
 70
     1
102
RTVSPropertyOp10
 70
     1
102
RTVSPropertyOp11
 70
     1
102
RTVSPropertyOp12
 70
     1
102
RTVSPropertyOp13
 70
     1
102
RTVSPropertyOp14
 70
     1
102
RTVSPropertyOp15
 70
     1
102
RTVSPropertyOp16
 70
     1
102
RTVSPropertyOp17
 70
     1
102
RTVSPropertyOp18
 70
     1
102
RTVSPropertyOp19
 70
     1
102
RTVSPropertyOp20
 70
     1
102
RTVSPropertyOp21
 70
     1
102
RTVSPropertyOp22
 70
     1
102
RTVSPropertyOp23
 70
     1
102
RTVSPropertyOp24
 70
     1
102
RTVSPropertyOp25
 70
     1
102
RTVSPropertyOp26
 70
     1
102
RTVSPropertyOp27
 70
     1
102
RTVSPropertyOp28
 70
     1
102
RTVSPropertyOp29
 70
     1
102
RTVSPropertyOp30
 70
     1
102
RTVSPropertyOp31
 70
     1
102
RTVSPropertyOp32
 70
     1
102
RTVSPropertyOp33
 70
     1
102
RTVSPropertyOp34
 70
     1
102
RTVSPropertyOp35
 70
     1
102
RTVSPropertyOp36
 70
     1
102
RTVSPropertyOp37
 70
     1
102
RTVSPropertyOp38
 70
     1
102
RTVSPropertyOp39
 70
     1
102
RTVSPropertyOp40
 70
     1
102
RTVSPropertyOp41
 70
     1
102
RTVSPropertyOp42
 70
     1
102
RTVSPropertyOp43
 70
     1
102
RTVSPropertyOp44
 70
     1
102
RTVSPropertyOp45
 70
     1
102
RTVSPropertyOp46
 70
     1
102
RTVSPropertyOp47
 70
     1
102
RTVSPropertyOp48
 70
     1
102
RTVSPropertyOp49
 70
     1
102
RTVSPropertyOp50
 70
     1
102
RTVSPropertyOp51
 70
     0
102
RTVSPropertyOp52
 70
     0
102
RTVSPropertyOp53
 70
     1
102
RTVSPropertyOp54
 70
     1
102
RTVSPropertyOp55
 70
     1
102
RTVSPropertyOp56
 70
     1
102
RTVSPropertyOp57
 70
     1
102
RTVSPost2010Prop28
280
     0
102
RTVSPost2010PropOp28
 70
     1
102
RTVSPost2010Prop29
280
     1
102
RTVSPost2010PropOp29
 70
     1
102
RTVSPost2010Prop30
280
     1
102
RTVSPost2010PropOp30
 70
     1
102
RTVSPost2010Prop31
280
     0
102
RTVSPost2010PropOp31
 70
     1
102
RTVSPost2010Prop32
280
     0
102
RTVSPost2010PropOp32
 70
     1
102
RTVSPost2010Prop33
280
     0
102
RTVSPost2010PropOp33
 70
     1
102
RTVSPost2010Prop34
280
     0
102
RTVSPost2010PropOp34
 70
     1
102
RTVSPost2010Prop35
280
     0
102
RTVSPost2010PropOp35
 70
     1
102
RTVSPost2010Prop36
280
     0
102
RTVSPost2010PropOp36
 70
     1
102
RTVSPost2010Prop37
 90
       50
102
RTVSPost2010PropOp37
 70
     1
102
RTVSPost2010Prop38
140
0.0
102
RTVSPost2010PropOp38
 70
     1
102
RTVSPost2010Prop39
140
1.0
102
RTVSPost2010PropOp39
 70
     1
102
RTVSPost2010Prop40
 90
        0
102
RTVSPost2010PropOp40
 70
     1
102
RTVSPost2010Prop41ColorIndex
 90
       18
102
RTVSPost2010Prop41ColorRGB
 90
        0
102
RTVSPost2010PropOp41
 70
     1
102
RTVSPost2010Prop42
 90
       50
102
RTVSPost2010PropOp42
 70
     1
102
RTVSPost2010Prop43
 90
        3
102
RTVSPost2010PropOp43
 70
     1
102
RTVSPost2010Prop44ColorIndex
 90
        5
102
RTVSPost2010Prop44ColorRGB
 90
      255
102
RTVSPost2010PropOp44
 70
     1
102
RTVSPost2010Prop45
280
     0
102
RTVSPost2010PropOp45
 70
     1
102
RTVSPost2010Prop46
 90
       50
102
RTVSPost2010PropOp46
 70
     1
102
RTVSPost2010Prop47
 90
       50
102
RTVSPost2010PropOp47
 70
     1
102
RTVSPost2010Prop48
 90
       50
102
RTVSPost2010PropOp48
 70
     1
102
RTVSPost2010Prop49
280
     0
102
RTVSPost2010PropOp49
 70
     1
102
RTVSPost2010Prop50
 90
       50
102
RTVSPost2010PropOp50
 70
     1
102
RTVSPost2010Prop51ColorIndex
 90
      256
102
RTVSPost2010Prop51ColorRGB
 90
-16777216
102
RTVSPost2010PropOp51
 70
     0
102
RTVSPost2010Prop52
140
1.0
102
RTVSPost2010PropOp52
 70
     0
102
RTVSPost2010Prop53
 90
        2
102
RTVSPost2010PropOp53
 70
     1
102
RTVSPost2010Prop54
  1
strokes_ogs.tif
102
RTVSPost2010PropOp54
 70
     1
102
RTVSPost2010Prop55
280
     0
102
RTVSPost2010PropOp55
 70
     1
102
RTVSPost2010Prop56
140
1.0
102
RTVSPost2010PropOp56
 70
     1
102
RTVSPost2010Prop57
140
1.0
102
RTVSPost2010PropOp57
 70
     1
  0
XRECORD
  5
20E
102
{ACAD_REACTORS
330
20D
102
}
330
20D
100
AcDbXrecord
280
     1
102
RTVSPropertyOp0
 70
     0
102
RTVSPropertyOp1
 70
     0
102
RTVSPropertyOp2
 70
     0
102
RTVSPropertyOp3
 70
     0
102
RTVSPropertyOp4
 70
     0
102
RTVSPropertyOp5
 70
     0
102
RTVSPropertyOp6
 70
     0
102
RTVSPropertyOp7
 70
     0
102
RTVSPropertyOp8
 70
     0
102
RTVSPropertyOp9
 70
     0
102
RTVSPropertyOp10
 70
     0
102
RTVSPropertyOp11
 70
     0
102
RTVSPropertyOp12
 70
     0
102
RTVSPropertyOp13
 70
     0
102
RTVSPropertyOp14
 70
     2
102
RTVSPropertyOp15
 70
     0
102
RTVSPropertyOp16
 70
     0
102
RTVSPropertyOp17
 70
     0
102
RTVSPropertyOp18
 70
     0
102
RTVSPropertyOp19
 70
     0
102
RTVSPropertyOp20
 70
     0
102
RTVSPropertyOp21
 70
     0
102
RTVSPropertyOp22
 70
     0
102
RTVSPropertyOp23
 70
     0
102
RTVSPropertyOp24
 70
     0
102
RTVSPropertyOp25
 70
     0
102
RTVSPropertyOp26
 70
     0
102
RTVSPropertyOp27
 70
     0
102
RTVSPropertyOp28
 70
     0
102
RTVSPropertyOp29
 70
     0
102
RTVSPropertyOp30
 70
     0
102
RTVSPropertyOp31
 70
     0
102
RTVSPropertyOp32
 70
     0
102
RTVSPropertyOp33
 70
     0
102
RTVSPropertyOp34
 70
     0
102
RTVSPropertyOp35
 70
     0
102
RTVSPropertyOp36
 70
     0
102
RTVSPropertyOp37
 70
     0
102
RTVSPropertyOp38
 70
     0
102
RTVSPropertyOp39
 70
     0
102
RTVSPropertyOp40
 70
     0
102
RTVSPropertyOp41
 70
     0
102
RTVSPropertyOp42
 70
     0
102
RTVSPropertyOp43
 70
     0
102
RTVSPropertyOp44
 70
     0
102
RTVSPropertyOp45
 70
     0
102
RTVSPropertyOp46
 70
     0
102
RTVSPropertyOp47
 70
     0
102
RTVSPropertyOp48
 70
     0
102
RTVSPropertyOp49
 70
     0
102
RTVSPropertyOp50
 70
     0
102
RTVSPropertyOp51
 70
     0
102
RTVSPropertyOp52
 70
     0
102
RTVSPropertyOp53
 70
     0
102
RTVSPropertyOp54
 70
     0
102
RTVSPropertyOp55
 70
     0
102
RTVSPropertyOp56
 70
     0
102
RTVSPropertyOp57
 70
     0
102
RTVSPost2010Prop28
280
     0
102
RTVSPost2010PropOp28
 70
     0
102
RTVSPost2010Prop29
280
     1
102
RTVSPost2010PropOp29
 70
     0
102
RTVSPost2010Prop30
280
     1
102
RTVSPost2010PropOp30
 70
     0
102
RTVSPost2010Prop31
280
     0
102
RTVSPost2010PropOp31
 70
     0
102
RTVSPost2010Prop32
280
     0
102
RTVSPost2010PropOp32
 70
     0
102
RTVSPost2010Prop33
280
     0
102
RTVSPost2010PropOp33
 70
     0
102
RTVSPost2010Prop34
280
     0
102
RTVSPost2010PropOp34
 70
     0
102
RTVSPost2010Prop35
280
     0
102
RTVSPost2010PropOp35
 70
     0
102
RTVSPost2010Prop36
280
     0
102
RTVSPost2010PropOp36
 70
     0
102
RTVSPost2010Prop37
 90
       50
102
RTVSPost2010PropOp37
 70
     0
102
RTVSPost2010Prop38
140
0.0
102
RTVSPost2010PropOp38
 70
     0
102
RTVSPost2010Prop39
140
1.0
102
RTVSPost2010PropOp39
 70
     0
102
RTVSPost2010Prop40
 90
        0
102
RTVSPost2010PropOp40
 70
     0
102
RTVSPost2010Prop41ColorIndex
 90
       18
102
RTVSPost2010Prop41ColorRGB
 90
        0
102
RTVSPost2010PropOp41
 70
     0
102
RTVSPost2010Prop42
 90
       50
102
RTVSPost2010PropOp42
 70
     0
102
RTVSPost2010Prop43
 90
        3
102
RTVSPost2010PropOp43
 70
     0
102
RTVSPost2010Prop44ColorIndex
 90
        5
102
RTVSPost2010Prop44ColorRGB
 90
      255
102
RTVSPost2010PropOp44
 70
     0
102
RTVSPost2010Prop45
280
     0
102
RTVSPost2010PropOp45
 70
     0
102
RTVSPost2010Prop46
 90
       50
102
RTVSPost2010PropOp46
 70
     0
102
RTVSPost2010Prop47
 90
       50
102
RTVSPost2010PropOp47
 70
     0
102
RTVSPost2010Prop48
 90
       50
102
RTVSPost2010PropOp48
 70
     0
102
RTVSPost2010Prop49
280
     0
102
RTVSPost2010PropOp49
 70
     0
102
RTVSPost2010Prop50
 90
       50
102
RTVSPost2010PropOp50
 70
     0
102
RTVSPost2010Prop51ColorIndex
 90
      256
102
RTVSPost2010Prop51ColorRGB
 90
-16777216
102
RTVSPost2010PropOp51
 70
     0
102
RTVSPost2010Prop52
140
1.0
102
RTVSPost2010PropOp52
 70
     0
102
RTVSPost2010Prop53
 90
        2
102
RTVSPost2010PropOp53
 70
     0
102
RTVSPost2010Prop54
  1
strokes_ogs.tif
102
RTVSPost2010PropOp54
 70
     0
102
RTVSPost2010Prop55
280
     0
102
RTVSPost2010PropOp55
 70
     0
102
RTVSPost2010Prop56
140
1.0
102
RTVSPost2010PropOp56
 70
     0
102
RTVSPost2010Prop57
140
1.0
102
RTVSPost2010PropOp57
 70
     0
  0
XRECORD
  5
206
102
{ACAD_REACTORS
330
205
102
}
330
205
100
AcDbXrecord
280
     1
102
RTVSPropertyOp0
 70
     1
102
RTVSPropertyOp1
 70
     1
102
RTVSPropertyOp2
 70
     1
102
RTVSPropertyOp3
 70
     1
102
RTVSPropertyOp4
 70
     1
102
RTVSPropertyOp5
 70
     1
102
RTVSPropertyOp6
 70
     1
102
RTVSPropertyOp7
 70
     1
102
RTVSPropertyOp8
 70
     1
102
RTVSPropertyOp9
 70
     1
102
RTVSPropertyOp10
 70
     1
102
RTVSPropertyOp11
 70
     1
102
RTVSPropertyOp12
 70
     1
102
RTVSPropertyOp13
 70
     1
102
RTVSPropertyOp14
 70
     1
102
RTVSPropertyOp15
 70
     1
102
RTVSPropertyOp16
 70
     1
102
RTVSPropertyOp17
 70
     1
102
RTVSPropertyOp18
 70
     1
102
RTVSPropertyOp19
 70
     1
102
RTVSPropertyOp20
 70
     1
102
RTVSPropertyOp21
 70
     1
102
RTVSPropertyOp22
 70
     1
102
RTVSPropertyOp23
 70
     1
102
RTVSPropertyOp24
 70
     1
102
RTVSPropertyOp25
 70
     1
102
RTVSPropertyOp26
 70
     1
102
RTVSPropertyOp27
 70
     1
102
RTVSPropertyOp28
 70
     1
102
RTVSPropertyOp29
 70
     1
102
RTVSPropertyOp30
 70
     1
102
RTVSPropertyOp31
 70
     1
102
RTVSPropertyOp32
 70
     1
102
RTVSPropertyOp33
 70
     1
102
RTVSPropertyOp34
 70
     1
102
RTVSPropertyOp35
 70
     1
102
RTVSPropertyOp36
 70
     1
102
RTVSPropertyOp37
 70
     1
102
RTVSPropertyOp38
 70
     1
102
RTVSPropertyOp39
 70
     1
102
RTVSPropertyOp40
 70
     1
102
RTVSPropertyOp41
 70
     1
102
RTVSPropertyOp42
 70
     1
102
RTVSPropertyOp43
 70
     1
102
RTVSPropertyOp44
 70
     1
102
RTVSPropertyOp45
 70
     1
102
RTVSPropertyOp46
 70
     1
102
RTVSPropertyOp47
 70
     1
102
RTVSPropertyOp48
 70
     1
102
RTVSPropertyOp49
 70
     1
102
RTVSPropertyOp50
 70
     1
102
RTVSPropertyOp51
 70
     0
102
RTVSPropertyOp52
 70
     0
102
RTVSPropertyOp53
 70
     1
102
RTVSPropertyOp54
 70
     1
102
RTVSPropertyOp55
 70
     1
102
RTVSPropertyOp56
 70
     1
102
RTVSPropertyOp57
 70
     1
102
RTVSPost2010Prop28
280
     0
102
RTVSPost2010PropOp28
 70
     1
102
RTVSPost2010Prop29
280
     1
102
RTVSPost2010PropOp29
 70
     1
102
RTVSPost2010Prop30
280
     1
102
RTVSPost2010PropOp30
 70
     1
102
RTVSPost2010Prop31
280
     0
102
RTVSPost2010PropOp31
 70
     1
102
RTVSPost2010Prop32
280
     0
102
RTVSPost2010PropOp32
 70
     1
102
RTVSPost2010Prop33
280
     0
102
RTVSPost2010PropOp33
 70
     1
102
RTVSPost2010Prop34
280
     0
102
RTVSPost2010PropOp34
 70
     1
102
RTVSPost2010Prop35
280
     0
102
RTVSPost2010PropOp35
 70
     1
102
RTVSPost2010Prop36
280
     0
102
RTVSPost2010PropOp36
 70
     1
102
RTVSPost2010Prop37
 90
       50
102
RTVSPost2010PropOp37
 70
     1
102
RTVSPost2010Prop38
140
0.0
102
RTVSPost2010PropOp38
 70
     1
102
RTVSPost2010Prop39
140
1.0
102
RTVSPost2010PropOp39
 70
     1
102
RTVSPost2010Prop40
 90
        0
102
RTVSPost2010PropOp40
 70
     1
102
RTVSPost2010Prop41ColorIndex
 90
       18
102
RTVSPost2010Prop41ColorRGB
 90
        0
102
RTVSPost2010PropOp41
 70
     1
102
RTVSPost2010Prop42
 90
       50
102
RTVSPost2010PropOp42
 70
     1
102
RTVSPost2010Prop43
 90
        3
102
RTVSPost2010PropOp43
 70
     1
102
RTVSPost2010Prop44ColorIndex
 90
        5
102
RTVSPost2010Prop44ColorRGB
 90
      255
102
RTVSPost2010PropOp44
 70
     1
102
RTVSPost2010Prop45
280
     0
102
RTVSPost2010PropOp45
 70
     1
102
RTVSPost2010Prop46
 90
       50
102
RTVSPost2010PropOp46
 70
     1
102
RTVSPost2010Prop47
 90
       50
102
RTVSPost2010PropOp47
 70
     1
102
RTVSPost2010Prop48
 90
       50
102
RTVSPost2010PropOp48
 70
     1
102
RTVSPost2010Prop49
280
     0
102
RTVSPost2010PropOp49
 70
     1
102
RTVSPost2010Prop50
 90
       50
102
RTVSPost2010PropOp50
 70
     1
102
RTVSPost2010Prop51ColorIndex
 90
      256
102
RTVSPost2010Prop51ColorRGB
 90
-16777216
102
RTVSPost2010PropOp51
 70
     0
102
RTVSPost2010Prop52
140
1.0
102
RTVSPost2010PropOp52
 70
     0
102
RTVSPost2010Prop53
 90
        2
102
RTVSPost2010PropOp53
 70
     1
102
RTVSPost2010Prop54
  1
strokes_ogs.tif
102
RTVSPost2010PropOp54
 70
     1
102
RTVSPost2010Prop55
280
     0
102
RTVSPost2010PropOp55
 70
     1
102
RTVSPost2010Prop56
140
1.0
102
RTVSPost2010PropOp56
 70
     1
102
RTVSPost2010Prop57
140
1.0
102
RTVSPost2010PropOp57
 70
     1
  0
XRECORD
  5
1EA
102
{ACAD_REACTORS
330
1E9
102
}
330
1E9
100
AcDbXrecord
280
     1
102
RTVSPropertyOp0
 70
     1
102
RTVSPropertyOp1
 70
     1
102
RTVSPropertyOp2
 70
     1
102
RTVSPropertyOp3
 70
     1
102
RTVSPropertyOp4
 70
     1
102
RTVSPropertyOp5
 70
     1
102
RTVSPropertyOp6
 70
     1
102
RTVSPropertyOp7
 70
     1
102
RTVSPropertyOp8
 70
     1
102
RTVSPropertyOp9
 70
     1
102
RTVSPropertyOp10
 70
     1
102
RTVSPropertyOp11
 70
     1
102
RTVSPropertyOp12
 70
     1
102
RTVSPropertyOp13
 70
     1
102
RTVSPropertyOp14
 70
     1
102
RTVSPropertyOp15
 70
     1
102
RTVSPropertyOp16
 70
     1
102
RTVSPropertyOp17
 70
     1
102
RTVSPropertyOp18
 70
     1
102
RTVSPropertyOp19
 70
     1
102
RTVSPropertyOp20
 70
     1
102
RTVSPropertyOp21
 70
     1
102
RTVSPropertyOp22
 70
     1
102
RTVSPropertyOp23
 70
     1
102
RTVSPropertyOp24
 70
     1
102
RTVSPropertyOp25
 70
     1
102
RTVSPropertyOp26
 70
     1
102
RTVSPropertyOp27
 70
     1
102
RTVSPropertyOp28
 70
     1
102
RTVSPropertyOp29
 70
     1
102
RTVSPropertyOp30
 70
     1
102
RTVSPropertyOp31
 70
     1
102
RTVSPropertyOp32
 70
     1
102
RTVSPropertyOp33
 70
     1
102
RTVSPropertyOp34
 70
     1
102
RTVSPropertyOp35
 70
     1
102
RTVSPropertyOp36
 70
     1
102
RTVSPropertyOp37
 70
     1
102
RTVSPropertyOp38
 70
     1
102
RTVSPropertyOp39
 70
     1
102
RTVSPropertyOp40
 70
     1
102
RTVSPropertyOp41
 70
     1
102
RTVSPropertyOp42
 70
     1
102
RTVSPropertyOp43
 70
     1
102
RTVSPropertyOp44
 70
     1
102
RTVSPropertyOp45
 70
     1
102
RTVSPropertyOp46
 70
     1
102
RTVSPropertyOp47
 70
     1
102
RTVSPropertyOp48
 70
     1
102
RTVSPropertyOp49
 70
     1
102
RTVSPropertyOp50
 70
     1
102
RTVSPropertyOp51
 70
     0
102
RTVSPropertyOp52
 70
     0
102
RTVSPropertyOp53
 70
     1
102
RTVSPropertyOp54
 70
     1
102
RTVSPropertyOp55
 70
     1
102
RTVSPropertyOp56
 70
     1
102
RTVSPropertyOp57
 70
     1
102
RTVSPost2010Prop28
280
     0
102
RTVSPost2010PropOp28
 70
     1
102
RTVSPost2010Prop29
280
     1
102
RTVSPost2010PropOp29
 70
     1
102
RTVSPost2010Prop30
280
     1
102
RTVSPost2010PropOp30
 70
     1
102
RTVSPost2010Prop31
280
     0
102
RTVSPost2010PropOp31
 70
     1
102
RTVSPost2010Prop32
280
     0
102
RTVSPost2010PropOp32
 70
     1
102
RTVSPost2010Prop33
280
     0
102
RTVSPost2010PropOp33
 70
     1
102
RTVSPost2010Prop34
280
     0
102
RTVSPost2010PropOp34
 70
     1
102
RTVSPost2010Prop35
280
     0
102
RTVSPost2010PropOp35
 70
     1
102
RTVSPost2010Prop36
280
     0
102
RTVSPost2010PropOp36
 70
     1
102
RTVSPost2010Prop37
 90
       50
102
RTVSPost2010PropOp37
 70
     1
102
RTVSPost2010Prop38
140
0.0
102
RTVSPost2010PropOp38
 70
     1
102
RTVSPost2010Prop39
140
1.0
102
RTVSPost2010PropOp39
 70
     1
102
RTVSPost2010Prop40
 90
        0
102
RTVSPost2010PropOp40
 70
     1
102
RTVSPost2010Prop41ColorIndex
 90
       18
102
RTVSPost2010Prop41ColorRGB
 90
        0
102
RTVSPost2010PropOp41
 70
     1
102
RTVSPost2010Prop42
 90
       50
102
RTVSPost2010PropOp42
 70
     1
102
RTVSPost2010Prop43
 90
        3
102
RTVSPost2010PropOp43
 70
     1
102
RTVSPost2010Prop44ColorIndex
 90
        5
102
RTVSPost2010Prop44ColorRGB
 90
      255
102
RTVSPost2010PropOp44
 70
     1
102
RTVSPost2010Prop45
280
     0
102
RTVSPost2010PropOp45
 70
     1
102
RTVSPost2010Prop46
 90
       50
102
RTVSPost2010PropOp46
 70
     1
102
RTVSPost2010Prop47
 90
       50
102
RTVSPost2010PropOp47
 70
     1
102
RTVSPost2010Prop48
 90
       50
102
RTVSPost2010PropOp48
 70
     1
102
RTVSPost2010Prop49
280
     0
102
RTVSPost2010PropOp49
 70
     1
102
RTVSPost2010Prop50
 90
       50
102
RTVSPost2010PropOp50
 70
     1
102
RTVSPost2010Prop51ColorIndex
 90
      256
102
RTVSPost2010Prop51ColorRGB
 90
-16777216
102
RTVSPost2010PropOp51
 70
     0
102
RTVSPost2010Prop52
140
1.0
102
RTVSPost2010PropOp52
 70
     0
102
RTVSPost2010Prop53
 90
        2
102
RTVSPost2010PropOp53
 70
     1
102
RTVSPost2010Prop54
  1
strokes_ogs.tif
102
RTVSPost2010PropOp54
 70
     1
102
RTVSPost2010Prop55
280
     0
102
RTVSPost2010PropOp55
 70
     1
102
RTVSPost2010Prop56
140
1.0
102
RTVSPost2010PropOp56
 70
     1
102
RTVSPost2010Prop57
140
1.0
102
RTVSPost2010PropOp57
 70
     1
  0
XRECORD
  5
1EC
102
{ACAD_REACTORS
330
1EB
102
}
330
1EB
100
AcDbXrecord
280
     1
102
RTVSPropertyOp0
 70
     1
102
RTVSPropertyOp1
 70
     1
102
RTVSPropertyOp2
 70
     1
102
RTVSPropertyOp3
 70
     1
102
RTVSPropertyOp4
 70
     1
102
RTVSPropertyOp5
 70
     1
102
RTVSPropertyOp6
 70
     1
102
RTVSPropertyOp7
 70
     1
102
RTVSPropertyOp8
 70
     1
102
RTVSPropertyOp9
 70
     1
102
RTVSPropertyOp10
 70
     1
102
RTVSPropertyOp11
 70
     1
102
RTVSPropertyOp12
 70
     1
102
RTVSPropertyOp13
 70
     1
102
RTVSPropertyOp14
 70
     1
102
RTVSPropertyOp15
 70
     1
102
RTVSPropertyOp16
 70
     1
102
RTVSPropertyOp17
 70
     1
102
RTVSPropertyOp18
 70
     1
102
RTVSPropertyOp19
 70
     1
102
RTVSPropertyOp20
 70
     1
102
RTVSPropertyOp21
 70
     1
102
RTVSPropertyOp22
 70
     1
102
RTVSPropertyOp23
 70
     1
102
RTVSPropertyOp24
 70
     1
102
RTVSPropertyOp25
 70
     1
102
RTVSPropertyOp26
 70
     1
102
RTVSPropertyOp27
 70
     1
102
RTVSPropertyOp28
 70
     1
102
RTVSPropertyOp29
 70
     1
102
RTVSPropertyOp30
 70
     1
102
RTVSPropertyOp31
 70
     1
102
RTVSPropertyOp32
 70
     1
102
RTVSPropertyOp33
 70
     1
102
RTVSPropertyOp34
 70
     1
102
RTVSPropertyOp35
 70
     1
102
RTVSPropertyOp36
 70
     1
102
RTVSPropertyOp37
 70
     1
102
RTVSPropertyOp38
 70
     1
102
RTVSPropertyOp39
 70
     1
102
RTVSPropertyOp40
 70
     1
102
RTVSPropertyOp41
 70
     1
102
RTVSPropertyOp42
 70
     1
102
RTVSPropertyOp43
 70
     1
102
RTVSPropertyOp44
 70
     1
102
RTVSPropertyOp45
 70
     1
102
RTVSPropertyOp46
 70
     1
102
RTVSPropertyOp47
 70
     1
102
RTVSPropertyOp48
 70
     1
102
RTVSPropertyOp49
 70
     1
102
RTVSPropertyOp50
 70
     1
102
RTVSPropertyOp51
 70
     0
102
RTVSPropertyOp52
 70
     0
102
RTVSPropertyOp53
 70
     1
102
RTVSPropertyOp54
 70
     1
102
RTVSPropertyOp55
 70
     1
102
RTVSPropertyOp56
 70
     1
102
RTVSPropertyOp57
 70
     1
102
RTVSPost2010Prop28
280
     0
102
RTVSPost2010PropOp28
 70
     1
102
RTVSPost2010Prop29
280
     1
102
RTVSPost2010PropOp29
 70
     1
102
RTVSPost2010Prop30
280
     1
102
RTVSPost2010PropOp30
 70
     1
102
RTVSPost2010Prop31
280
     0
102
RTVSPost2010PropOp31
 70
     1
102
RTVSPost2010Prop32
280
     0
102
RTVSPost2010PropOp32
 70
     1
102
RTVSPost2010Prop33
280
     0
102
RTVSPost2010PropOp33
 70
     1
102
RTVSPost2010Prop34
280
     0
102
RTVSPost2010PropOp34
 70
     1
102
RTVSPost2010Prop35
280
     0
102
RTVSPost2010PropOp35
 70
     1
102
RTVSPost2010Prop36
280
     0
102
RTVSPost2010PropOp36
 70
     1
102
RTVSPost2010Prop37
 90
       50
102
RTVSPost2010PropOp37
 70
     1
102
RTVSPost2010Prop38
140
0.0
102
RTVSPost2010PropOp38
 70
     1
102
RTVSPost2010Prop39
140
1.0
102
RTVSPost2010PropOp39
 70
     1
102
RTVSPost2010Prop40
 90
        0
102
RTVSPost2010PropOp40
 70
     1
102
RTVSPost2010Prop41ColorIndex
 90
       18
102
RTVSPost2010Prop41ColorRGB
 90
        0
102
RTVSPost2010PropOp41
 70
     1
102
RTVSPost2010Prop42
 90
       50
102
RTVSPost2010PropOp42
 70
     1
102
RTVSPost2010Prop43
 90
        3
102
RTVSPost2010PropOp43
 70
     1
102
RTVSPost2010Prop44ColorIndex
 90
        5
102
RTVSPost2010Prop44ColorRGB
 90
      255
102
RTVSPost2010PropOp44
 70
     1
102
RTVSPost2010Prop45
280
     0
102
RTVSPost2010PropOp45
 70
     1
102
RTVSPost2010Prop46
 90
       50
102
RTVSPost2010PropOp46
 70
     1
102
RTVSPost2010Prop47
 90
       50
102
RTVSPost2010PropOp47
 70
     1
102
RTVSPost2010Prop48
 90
       50
102
RTVSPost2010PropOp48
 70
     1
102
RTVSPost2010Prop49
280
     0
102
RTVSPost2010PropOp49
 70
     1
102
RTVSPost2010Prop50
 90
       50
102
RTVSPost2010PropOp50
 70
     1
102
RTVSPost2010Prop51ColorIndex
 90
      256
102
RTVSPost2010Prop51ColorRGB
 90
-16777216
102
RTVSPost2010PropOp51
 70
     0
102
RTVSPost2010Prop52
140
1.0
102
RTVSPost2010PropOp52
 70
     0
102
RTVSPost2010Prop53
 90
        2
102
RTVSPost2010PropOp53
 70
     1
102
RTVSPost2010Prop54
  1
strokes_ogs.tif
102
RTVSPost2010PropOp54
 70
     1
102
RTVSPost2010Prop55
280
     0
102
RTVSPost2010PropOp55
 70
     1
102
RTVSPost2010Prop56
140
1.0
102
RTVSPost2010PropOp56
 70
     1
102
RTVSPost2010Prop57
140
1.0
102
RTVSPost2010PropOp57
 70
     1
  0
XRECORD
  5
1EE
102
{ACAD_REACTORS
330
1ED
102
}
330
1ED
100
AcDbXrecord
280
     1
102
RTVSPropertyOp0
 70
     1
102
RTVSPropertyOp1
 70
     1
102
RTVSPropertyOp2
 70
     1
102
RTVSPropertyOp3
 70
     1
102
RTVSPropertyOp4
 70
     1
102
RTVSPropertyOp5
 70
     1
102
RTVSPropertyOp6
 70
     1
102
RTVSPropertyOp7
 70
     1
102
RTVSPropertyOp8
 70
     1
102
RTVSPropertyOp9
 70
     1
102
RTVSPropertyOp10
 70
     1
102
RTVSPropertyOp11
 70
     1
102
RTVSPropertyOp12
 70
     1
102
RTVSPropertyOp13
 70
     1
102
RTVSPropertyOp14
 70
     1
102
RTVSPropertyOp15
 70
     1
102
RTVSPropertyOp16
 70
     1
102
RTVSPropertyOp17
 70
     1
102
RTVSPropertyOp18
 70
     1
102
RTVSPropertyOp19
 70
     1
102
RTVSPropertyOp20
 70
     1
102
RTVSPropertyOp21
 70
     1
102
RTVSPropertyOp22
 70
     1
102
RTVSPropertyOp23
 70
     1
102
RTVSPropertyOp24
 70
     1
102
RTVSPropertyOp25
 70
     1
102
RTVSPropertyOp26
 70
     1
102
RTVSPropertyOp27
 70
     1
102
RTVSPropertyOp28
 70
     1
102
RTVSPropertyOp29
 70
     1
102
RTVSPropertyOp30
 70
     1
102
RTVSPropertyOp31
 70
     1
102
RTVSPropertyOp32
 70
     1
102
RTVSPropertyOp33
 70
     1
102
RTVSPropertyOp34
 70
     1
102
RTVSPropertyOp35
 70
     1
102
RTVSPropertyOp36
 70
     1
102
RTVSPropertyOp37
 70
     1
102
RTVSPropertyOp38
 70
     1
102
RTVSPropertyOp39
 70
     1
102
RTVSPropertyOp40
 70
     1
102
RTVSPropertyOp41
 70
     1
102
RTVSPropertyOp42
 70
     1
102
RTVSPropertyOp43
 70
     1
102
RTVSPropertyOp44
 70
     1
102
RTVSPropertyOp45
 70
     1
102
RTVSPropertyOp46
 70
     1
102
RTVSPropertyOp47
 70
     1
102
RTVSPropertyOp48
 70
     1
102
RTVSPropertyOp49
 70
     1
102
RTVSPropertyOp50
 70
     1
102
RTVSPropertyOp51
 70
     0
102
RTVSPropertyOp52
 70
     0
102
RTVSPropertyOp53
 70
     1
102
RTVSPropertyOp54
 70
     1
102
RTVSPropertyOp55
 70
     1
102
RTVSPropertyOp56
 70
     1
102
RTVSPropertyOp57
 70
     1
102
RTVSPost2010Prop28
280
     0
102
RTVSPost2010PropOp28
 70
     1
102
RTVSPost2010Prop29
280
     1
102
RTVSPost2010PropOp29
 70
     1
102
RTVSPost2010Prop30
280
     1
102
RTVSPost2010PropOp30
 70
     1
102
RTVSPost2010Prop31
280
     0
102
RTVSPost2010PropOp31
 70
     1
102
RTVSPost2010Prop32
280
     0
102
RTVSPost2010PropOp32
 70
     1
102
RTVSPost2010Prop33
280
     0
102
RTVSPost2010PropOp33
 70
     1
102
RTVSPost2010Prop34
280
     0
102
RTVSPost2010PropOp34
 70
     1
102
RTVSPost2010Prop35
280
     0
102
RTVSPost2010PropOp35
 70
     1
102
RTVSPost2010Prop36
280
     0
102
RTVSPost2010PropOp36
 70
     1
102
RTVSPost2010Prop37
 90
       50
102
RTVSPost2010PropOp37
 70
     1
102
RTVSPost2010Prop38
140
0.0
102
RTVSPost2010PropOp38
 70
     1
102
RTVSPost2010Prop39
140
1.0
102
RTVSPost2010PropOp39
 70
     1
102
RTVSPost2010Prop40
 90
        0
102
RTVSPost2010PropOp40
 70
     1
102
RTVSPost2010Prop41ColorIndex
 90
       18
102
RTVSPost2010Prop41ColorRGB
 90
        0
102
RTVSPost2010PropOp41
 70
     1
102
RTVSPost2010Prop42
 90
       50
102
RTVSPost2010PropOp42
 70
     1
102
RTVSPost2010Prop43
 90
        3
102
RTVSPost2010PropOp43
 70
     1
102
RTVSPost2010Prop44ColorIndex
 90
        5
102
RTVSPost2010Prop44ColorRGB
 90
      255
102
RTVSPost2010PropOp44
 70
     1
102
RTVSPost2010Prop45
280
     0
102
RTVSPost2010PropOp45
 70
     1
102
RTVSPost2010Prop46
 90
       50
102
RTVSPost2010PropOp46
 70
     1
102
RTVSPost2010Prop47
 90
       50
102
RTVSPost2010PropOp47
 70
     1
102
RTVSPost2010Prop48
 90
       50
102
RTVSPost2010PropOp48
 70
     1
102
RTVSPost2010Prop49
280
     0
102
RTVSPost2010PropOp49
 70
     1
102
RTVSPost2010Prop50
 90
       50
102
RTVSPost2010PropOp50
 70
     1
102
RTVSPost2010Prop51ColorIndex
 90
      256
102
RTVSPost2010Prop51ColorRGB
 90
-16777216
102
RTVSPost2010PropOp51
 70
     0
102
RTVSPost2010Prop52
140
1.0
102
RTVSPost2010PropOp52
 70
     0
102
RTVSPost2010Prop53
 90
        2
102
RTVSPost2010PropOp53
 70
     1
102
RTVSPost2010Prop54
  1
strokes_ogs.tif
102
RTVSPost2010PropOp54
 70
     1
102
RTVSPost2010Prop55
280
     0
102
RTVSPost2010PropOp55
 70
     1
102
RTVSPost2010Prop56
140
1.0
102
RTVSPost2010PropOp56
 70
     1
102
RTVSPost2010Prop57
140
1.0
102
RTVSPost2010PropOp57
 70
     1
  0
XRECORD
  5
1F0
102
{ACAD_REACTORS
330
1EF
102
}
330
1EF
100
AcDbXrecord
280
     1
102
RTVSPropertyOp0
 70
     1
102
RTVSPropertyOp1
 70
     1
102
RTVSPropertyOp2
 70
     1
102
RTVSPropertyOp3
 70
     1
102
RTVSPropertyOp4
 70
     1
102
RTVSPropertyOp5
 70
     1
102
RTVSPropertyOp6
 70
     1
102
RTVSPropertyOp7
 70
     1
102
RTVSPropertyOp8
 70
     1
102
RTVSPropertyOp9
 70
     1
102
RTVSPropertyOp10
 70
     1
102
RTVSPropertyOp11
 70
     1
102
RTVSPropertyOp12
 70
     1
102
RTVSPropertyOp13
 70
     1
102
RTVSPropertyOp14
 70
     1
102
RTVSPropertyOp15
 70
     1
102
RTVSPropertyOp16
 70
     1
102
RTVSPropertyOp17
 70
     1
102
RTVSPropertyOp18
 70
     1
102
RTVSPropertyOp19
 70
     1
102
RTVSPropertyOp20
 70
     1
102
RTVSPropertyOp21
 70
     1
102
RTVSPropertyOp22
 70
     1
102
RTVSPropertyOp23
 70
     1
102
RTVSPropertyOp24
 70
     1
102
RTVSPropertyOp25
 70
     1
102
RTVSPropertyOp26
 70
     1
102
RTVSPropertyOp27
 70
     1
102
RTVSPropertyOp28
 70
     1
102
RTVSPropertyOp29
 70
     1
102
RTVSPropertyOp30
 70
     1
102
RTVSPropertyOp31
 70
     1
102
RTVSPropertyOp32
 70
     1
102
RTVSPropertyOp33
 70
     1
102
RTVSPropertyOp34
 70
     1
102
RTVSPropertyOp35
 70
     1
102
RTVSPropertyOp36
 70
     1
102
RTVSPropertyOp37
 70
     1
102
RTVSPropertyOp38
 70
     1
102
RTVSPropertyOp39
 70
     1
102
RTVSPropertyOp40
 70
     1
102
RTVSPropertyOp41
 70
     1
102
RTVSPropertyOp42
 70
     1
102
RTVSPropertyOp43
 70
     1
102
RTVSPropertyOp44
 70
     1
102
RTVSPropertyOp45
 70
     1
102
RTVSPropertyOp46
 70
     1
102
RTVSPropertyOp47
 70
     1
102
RTVSPropertyOp48
 70
     1
102
RTVSPropertyOp49
 70
     1
102
RTVSPropertyOp50
 70
     1
102
RTVSPropertyOp51
 70
     0
102
RTVSPropertyOp52
 70
     0
102
RTVSPropertyOp53
 70
     1
102
RTVSPropertyOp54
 70
     1
102
RTVSPropertyOp55
 70
     1
102
RTVSPropertyOp56
 70
     1
102
RTVSPropertyOp57
 70
     1
102
RTVSPost2010Prop28
280
     0
102
RTVSPost2010PropOp28
 70
     1
102
RTVSPost2010Prop29
280
     1
102
RTVSPost2010PropOp29
 70
     1
102
RTVSPost2010Prop30
280
     1
102
RTVSPost2010PropOp30
 70
     1
102
RTVSPost2010Prop31
280
     0
102
RTVSPost2010PropOp31
 70
     1
102
RTVSPost2010Prop32
280
     0
102
RTVSPost2010PropOp32
 70
     1
102
RTVSPost2010Prop33
280
     0
102
RTVSPost2010PropOp33
 70
     1
102
RTVSPost2010Prop34
280
     0
102
RTVSPost2010PropOp34
 70
     1
102
RTVSPost2010Prop35
280
     0
102
RTVSPost2010PropOp35
 70
     1
102
RTVSPost2010Prop36
280
     0
102
RTVSPost2010PropOp36
 70
     1
102
RTVSPost2010Prop37
 90
       50
102
RTVSPost2010PropOp37
 70
     1
102
RTVSPost2010Prop38
140
0.0
102
RTVSPost2010PropOp38
 70
     1
102
RTVSPost2010Prop39
140
1.0
102
RTVSPost2010PropOp39
 70
     1
102
RTVSPost2010Prop40
 90
        0
102
RTVSPost2010PropOp40
 70
     1
102
RTVSPost2010Prop41ColorIndex
 90
       18
102
RTVSPost2010Prop41ColorRGB
 90
        0
102
RTVSPost2010PropOp41
 70
     1
102
RTVSPost2010Prop42
 90
       50
102
RTVSPost2010PropOp42
 70
     1
102
RTVSPost2010Prop43
 90
        3
102
RTVSPost2010PropOp43
 70
     1
102
RTVSPost2010Prop44ColorIndex
 90
        5
102
RTVSPost2010Prop44ColorRGB
 90
      255
102
RTVSPost2010PropOp44
 70
     1
102
RTVSPost2010Prop45
280
     0
102
RTVSPost2010PropOp45
 70
     1
102
RTVSPost2010Prop46
 90
       50
102
RTVSPost2010PropOp46
 70
     1
102
RTVSPost2010Prop47
 90
       50
102
RTVSPost2010PropOp47
 70
     1
102
RTVSPost2010Prop48
 90
       50
102
RTVSPost2010PropOp48
 70
     1
102
RTVSPost2010Prop49
280
     0
102
RTVSPost2010PropOp49
 70
     1
102
RTVSPost2010Prop50
 90
       50
102
RTVSPost2010PropOp50
 70
     1
102
RTVSPost2010Prop51ColorIndex
 90
      256
102
RTVSPost2010Prop51ColorRGB
 90
-16777216
102
RTVSPost2010PropOp51
 70
     0
102
RTVSPost2010Prop52
140
1.0
102
RTVSPost2010PropOp52
 70
     0
102
RTVSPost2010Prop53
 90
        2
102
RTVSPost2010PropOp53
 70
     1
102
RTVSPost2010Prop54
  1
strokes_ogs.tif
102
RTVSPost2010PropOp54
 70
     1
102
RTVSPost2010Prop55
280
     0
102
RTVSPost2010PropOp55
 70
     1
102
RTVSPost2010Prop56
140
1.0
102
RTVSPost2010PropOp56
 70
     1
102
RTVSPost2010Prop57
140
1.0
102
RTVSPost2010PropOp57
 70
     1
  0
XRECORD
  5
1F6
102
{ACAD_REACTORS
330
1F5
102
}
330
1F5
100
AcDbXrecord
280
     1
102
RTVSPropertyOp0
 70
     1
102
RTVSPropertyOp1
 70
     1
102
RTVSPropertyOp2
 70
     1
102
RTVSPropertyOp3
 70
     1
102
RTVSPropertyOp4
 70
     1
102
RTVSPropertyOp5
 70
     1
102
RTVSPropertyOp6
 70
     1
102
RTVSPropertyOp7
 70
     1
102
RTVSPropertyOp8
 70
     1
102
RTVSPropertyOp9
 70
     1
102
RTVSPropertyOp10
 70
     1
102
RTVSPropertyOp11
 70
     1
102
RTVSPropertyOp12
 70
     1
102
RTVSPropertyOp13
 70
     1
102
RTVSPropertyOp14
 70
     1
102
RTVSPropertyOp15
 70
     1
102
RTVSPropertyOp16
 70
     1
102
RTVSPropertyOp17
 70
     1
102
RTVSPropertyOp18
 70
     1
102
RTVSPropertyOp19
 70
     1
102
RTVSPropertyOp20
 70
     1
102
RTVSPropertyOp21
 70
     1
102
RTVSPropertyOp22
 70
     1
102
RTVSPropertyOp23
 70
     1
102
RTVSPropertyOp24
 70
     1
102
RTVSPropertyOp25
 70
     1
102
RTVSPropertyOp26
 70
     1
102
RTVSPropertyOp27
 70
     1
102
RTVSPropertyOp28
 70
     1
102
RTVSPropertyOp29
 70
     1
102
RTVSPropertyOp30
 70
     1
102
RTVSPropertyOp31
 70
     1
102
RTVSPropertyOp32
 70
     1
102
RTVSPropertyOp33
 70
     1
102
RTVSPropertyOp34
 70
     1
102
RTVSPropertyOp35
 70
     1
102
RTVSPropertyOp36
 70
     1
102
RTVSPropertyOp37
 70
     1
102
RTVSPropertyOp38
 70
     1
102
RTVSPropertyOp39
 70
     1
102
RTVSPropertyOp40
 70
     1
102
RTVSPropertyOp41
 70
     1
102
RTVSPropertyOp42
 70
     1
102
RTVSPropertyOp43
 70
     1
102
RTVSPropertyOp44
 70
     1
102
RTVSPropertyOp45
 70
     1
102
RTVSPropertyOp46
 70
     1
102
RTVSPropertyOp47
 70
     1
102
RTVSPropertyOp48
 70
     1
102
RTVSPropertyOp49
 70
     1
102
RTVSPropertyOp50
 70
     1
102
RTVSPropertyOp51
 70
     0
102
RTVSPropertyOp52
 70
     0
102
RTVSPropertyOp53
 70
     1
102
RTVSPropertyOp54
 70
     1
102
RTVSPropertyOp55
 70
     1
102
RTVSPropertyOp56
 70
     1
102
RTVSPropertyOp57
 70
     1
102
RTVSPost2010Prop28
280
     0
102
RTVSPost2010PropOp28
 70
     1
102
RTVSPost2010Prop29
280
     1
102
RTVSPost2010PropOp29
 70
     1
102
RTVSPost2010Prop30
280
     1
102
RTVSPost2010PropOp30
 70
     1
102
RTVSPost2010Prop31
280
     0
102
RTVSPost2010PropOp31
 70
     1
102
RTVSPost2010Prop32
280
     0
102
RTVSPost2010PropOp32
 70
     1
102
RTVSPost2010Prop33
280
     0
102
RTVSPost2010PropOp33
 70
     1
102
RTVSPost2010Prop34
280
     0
102
RTVSPost2010PropOp34
 70
     1
102
RTVSPost2010Prop35
280
     0
102
RTVSPost2010PropOp35
 70
     1
102
RTVSPost2010Prop36
280
     0
102
RTVSPost2010PropOp36
 70
     1
102
RTVSPost2010Prop37
 90
       50
102
RTVSPost2010PropOp37
 70
     1
102
RTVSPost2010Prop38
140
0.0
102
RTVSPost2010PropOp38
 70
     1
102
RTVSPost2010Prop39
140
1.0
102
RTVSPost2010PropOp39
 70
     1
102
RTVSPost2010Prop40
 90
        0
102
RTVSPost2010PropOp40
 70
     1
102
RTVSPost2010Prop41ColorIndex
 90
       18
102
RTVSPost2010Prop41ColorRGB
 90
        0
102
RTVSPost2010PropOp41
 70
     1
102
RTVSPost2010Prop42
 90
       50
102
RTVSPost2010PropOp42
 70
     1
102
RTVSPost2010Prop43
 90
        3
102
RTVSPost2010PropOp43
 70
     1
102
RTVSPost2010Prop44ColorIndex
 90
        5
102
RTVSPost2010Prop44ColorRGB
 90
      255
102
RTVSPost2010PropOp44
 70
     1
102
RTVSPost2010Prop45
280
     0
102
RTVSPost2010PropOp45
 70
     1
102
RTVSPost2010Prop46
 90
       50
102
RTVSPost2010PropOp46
 70
     1
102
RTVSPost2010Prop47
 90
       50
102
RTVSPost2010PropOp47
 70
     1
102
RTVSPost2010Prop48
 90
       50
102
RTVSPost2010PropOp48
 70
     1
102
RTVSPost2010Prop49
280
     0
102
RTVSPost2010PropOp49
 70
     1
102
RTVSPost2010Prop50
 90
       50
102
RTVSPost2010PropOp50
 70
     1
102
RTVSPost2010Prop51ColorIndex
 90
      256
102
RTVSPost2010Prop51ColorRGB
 90
-16777216
102
RTVSPost2010PropOp51
 70
     0
102
RTVSPost2010Prop52
140
1.0
102
RTVSPost2010PropOp52
 70
     0
102
RTVSPost2010Prop53
 90
        2
102
RTVSPost2010PropOp53
 70
     1
102
RTVSPost2010Prop54
  1
strokes_ogs.tif
102
RTVSPost2010PropOp54
 70
     1
102
RTVSPost2010Prop55
280
     0
102
RTVSPost2010PropOp55
 70
     1
102
RTVSPost2010Prop56
140
1.0
102
RTVSPost2010PropOp56
 70
     1
102
RTVSPost2010Prop57
140
1.0
102
RTVSPost2010PropOp57
 70
     1
  0
XRECORD
  5
20A
102
{ACAD_REACTORS
330
209
102
}
330
209
100
AcDbXrecord
280
     1
102
RTVSPropertyOp0
 70
     0
102
RTVSPropertyOp1
 70
     0
102
RTVSPropertyOp2
 70
     0
102
RTVSPropertyOp3
 70
     0
102
RTVSPropertyOp4
 70
     0
102
RTVSPropertyOp5
 70
     0
102
RTVSPropertyOp6
 70
     0
102
RTVSPropertyOp7
 70
     0
102
RTVSPropertyOp8
 70
     0
102
RTVSPropertyOp9
 70
     0
102
RTVSPropertyOp10
 70
     0
102
RTVSPropertyOp11
 70
     0
102
RTVSPropertyOp12
 70
     0
102
RTVSPropertyOp13
 70
     0
102
RTVSPropertyOp14
 70
     2
102
RTVSPropertyOp15
 70
     0
102
RTVSPropertyOp16
 70
     0
102
RTVSPropertyOp17
 70
     0
102
RTVSPropertyOp18
 70
     0
102
RTVSPropertyOp19
 70
     0
102
RTVSPropertyOp20
 70
     0
102
RTVSPropertyOp21
 70
     0
102
RTVSPropertyOp22
 70
     0
102
RTVSPropertyOp23
 70
     0
102
RTVSPropertyOp24
 70
     0
102
RTVSPropertyOp25
 70
     0
102
RTVSPropertyOp26
 70
     0
102
RTVSPropertyOp27
 70
     0
102
RTVSPropertyOp28
 70
     0
102
RTVSPropertyOp29
 70
     0
102
RTVSPropertyOp30
 70
     0
102
RTVSPropertyOp31
 70
     0
102
RTVSPropertyOp32
 70
     0
102
RTVSPropertyOp33
 70
     0
102
RTVSPropertyOp34
 70
     0
102
RTVSPropertyOp35
 70
     0
102
RTVSPropertyOp36
 70
     0
102
RTVSPropertyOp37
 70
     0
102
RTVSPropertyOp38
 70
     0
102
RTVSPropertyOp39
 70
     0
102
RTVSPropertyOp40
 70
     0
102
RTVSPropertyOp41
 70
     0
102
RTVSPropertyOp42
 70
     0
102
RTVSPropertyOp43
 70
     0
102
RTVSPropertyOp44
 70
     0
102
RTVSPropertyOp45
 70
     0
102
RTVSPropertyOp46
 70
     0
102
RTVSPropertyOp47
 70
     0
102
RTVSPropertyOp48
 70
     0
102
RTVSPropertyOp49
 70
     0
102
RTVSPropertyOp50
 70
     0
102
RTVSPropertyOp51
 70
     0
102
RTVSPropertyOp52
 70
     0
102
RTVSPropertyOp53
 70
     0
102
RTVSPropertyOp54
 70
     0
102
RTVSPropertyOp55
 70
     0
102
RTVSPropertyOp56
 70
     0
102
RTVSPropertyOp57
 70
     0
102
RTVSPost2010Prop28
280
     0
102
RTVSPost2010PropOp28
 70
     0
102
RTVSPost2010Prop29
280
     1
102
RTVSPost2010PropOp29
 70
     0
102
RTVSPost2010Prop30
280
     1
102
RTVSPost2010PropOp30
 70
     0
102
RTVSPost2010Prop31
280
     0
102
RTVSPost2010PropOp31
 70
     0
102
RTVSPost2010Prop32
280
     0
102
RTVSPost2010PropOp32
 70
     0
102
RTVSPost2010Prop33
280
     0
102
RTVSPost2010PropOp33
 70
     0
102
RTVSPost2010Prop34
280
     0
102
RTVSPost2010PropOp34
 70
     0
102
RTVSPost2010Prop35
280
     0
102
RTVSPost2010PropOp35
 70
     0
102
RTVSPost2010Prop36
280
     0
102
RTVSPost2010PropOp36
 70
     0
102
RTVSPost2010Prop37
 90
       50
102
RTVSPost2010PropOp37
 70
     0
102
RTVSPost2010Prop38
140
0.0
102
RTVSPost2010PropOp38
 70
     0
102
RTVSPost2010Prop39
140
1.0
102
RTVSPost2010PropOp39
 70
     0
102
RTVSPost2010Prop40
 90
        0
102
RTVSPost2010PropOp40
 70
     0
102
RTVSPost2010Prop41ColorIndex
 90
       18
102
RTVSPost2010Prop41ColorRGB
 90
        0
102
RTVSPost2010PropOp41
 70
     0
102
RTVSPost2010Prop42
 90
       50
102
RTVSPost2010PropOp42
 70
     0
102
RTVSPost2010Prop43
 90
        3
102
RTVSPost2010PropOp43
 70
     0
102
RTVSPost2010Prop44ColorIndex
 90
        5
102
RTVSPost2010Prop44ColorRGB
 90
      255
102
RTVSPost2010PropOp44
 70
     0
102
RTVSPost2010Prop45
280
     0
102
RTVSPost2010PropOp45
 70
     0
102
RTVSPost2010Prop46
 90
       50
102
RTVSPost2010PropOp46
 70
     0
102
RTVSPost2010Prop47
 90
       50
102
RTVSPost2010PropOp47
 70
     0
102
RTVSPost2010Prop48
 90
       50
102
RTVSPost2010PropOp48
 70
     0
102
RTVSPost2010Prop49
280
     0
102
RTVSPost2010PropOp49
 70
     0
102
RTVSPost2010Prop50
 90
       50
102
RTVSPost2010PropOp50
 70
     0
102
RTVSPost2010Prop51ColorIndex
 90
      256
102
RTVSPost2010Prop51ColorRGB
 90
-16777216
102
RTVSPost2010PropOp51
 70
     0
102
RTVSPost2010Prop52
140
1.0
102
RTVSPost2010PropOp52
 70
     0
102
RTVSPost2010Prop53
 90
        2
102
RTVSPost2010PropOp53
 70
     0
102
RTVSPost2010Prop54
  1
strokes_ogs.tif
102
RTVSPost2010PropOp54
 70
     0
102
RTVSPost2010Prop55
280
     0
102
RTVSPost2010PropOp55
 70
     0
102
RTVSPost2010Prop56
140
1.0
102
RTVSPost2010PropOp56
 70
     0
102
RTVSPost2010Prop57
140
1.0
102
RTVSPost2010PropOp57
 70
     0
  0
XRECORD
  5
204
102
{ACAD_REACTORS
330
203
102
}
330
203
100
AcDbXrecord
280
     1
102
RTVSPropertyOp0
 70
     1
102
RTVSPropertyOp1
 70
     1
102
RTVSPropertyOp2
 70
     1
102
RTVSPropertyOp3
 70
     1
102
RTVSPropertyOp4
 70
     1
102
RTVSPropertyOp5
 70
     1
102
RTVSPropertyOp6
 70
     1
102
RTVSPropertyOp7
 70
     1
102
RTVSPropertyOp8
 70
     1
102
RTVSPropertyOp9
 70
     1
102
RTVSPropertyOp10
 70
     1
102
RTVSPropertyOp11
 70
     1
102
RTVSPropertyOp12
 70
     1
102
RTVSPropertyOp13
 70
     1
102
RTVSPropertyOp14
 70
     1
102
RTVSPropertyOp15
 70
     1
102
RTVSPropertyOp16
 70
     1
102
RTVSPropertyOp17
 70
     1
102
RTVSPropertyOp18
 70
     1
102
RTVSPropertyOp19
 70
     1
102
RTVSPropertyOp20
 70
     1
102
RTVSPropertyOp21
 70
     1
102
RTVSPropertyOp22
 70
     1
102
RTVSPropertyOp23
 70
     1
102
RTVSPropertyOp24
 70
     1
102
RTVSPropertyOp25
 70
     1
102
RTVSPropertyOp26
 70
     1
102
RTVSPropertyOp27
 70
     1
102
RTVSPropertyOp28
 70
     1
102
RTVSPropertyOp29
 70
     1
102
RTVSPropertyOp30
 70
     1
102
RTVSPropertyOp31
 70
     1
102
RTVSPropertyOp32
 70
     1
102
RTVSPropertyOp33
 70
     1
102
RTVSPropertyOp34
 70
     1
102
RTVSPropertyOp35
 70
     1
102
RTVSPropertyOp36
 70
     1
102
RTVSPropertyOp37
 70
     1
102
RTVSPropertyOp38
 70
     1
102
RTVSPropertyOp39
 70
     1
102
RTVSPropertyOp40
 70
     1
102
RTVSPropertyOp41
 70
     1
102
RTVSPropertyOp42
 70
     1
102
RTVSPropertyOp43
 70
     1
102
RTVSPropertyOp44
 70
     1
102
RTVSPropertyOp45
 70
     1
102
RTVSPropertyOp46
 70
     1
102
RTVSPropertyOp47
 70
     1
102
RTVSPropertyOp48
 70
     1
102
RTVSPropertyOp49
 70
     1
102
RTVSPropertyOp50
 70
     1
102
RTVSPropertyOp51
 70
     0
102
RTVSPropertyOp52
 70
     0
102
RTVSPropertyOp53
 70
     1
102
RTVSPropertyOp54
 70
     1
102
RTVSPropertyOp55
 70
     1
102
RTVSPropertyOp56
 70
     1
102
RTVSPropertyOp57
 70
     1
102
RTVSPost2010Prop28
280
     0
102
RTVSPost2010PropOp28
 70
     1
102
RTVSPost2010Prop29
280
     1
102
RTVSPost2010PropOp29
 70
     1
102
RTVSPost2010Prop30
280
     1
102
RTVSPost2010PropOp30
 70
     1
102
RTVSPost2010Prop31
280
     0
102
RTVSPost2010PropOp31
 70
     1
102
RTVSPost2010Prop32
280
     0
102
RTVSPost2010PropOp32
 70
     1
102
RTVSPost2010Prop33
280
     0
102
RTVSPost2010PropOp33
 70
     1
102
RTVSPost2010Prop34
280
     0
102
RTVSPost2010PropOp34
 70
     1
102
RTVSPost2010Prop35
280
     0
102
RTVSPost2010PropOp35
 70
     1
102
RTVSPost2010Prop36
280
     0
102
RTVSPost2010PropOp36
 70
     1
102
RTVSPost2010Prop37
 90
       50
102
RTVSPost2010PropOp37
 70
     1
102
RTVSPost2010Prop38
140
0.0
102
RTVSPost2010PropOp38
 70
     1
102
RTVSPost2010Prop39
140
1.0
102
RTVSPost2010PropOp39
 70
     1
102
RTVSPost2010Prop40
 90
        0
102
RTVSPost2010PropOp40
 70
     1
102
RTVSPost2010Prop41ColorIndex
 90
       18
102
RTVSPost2010Prop41ColorRGB
 90
        0
102
RTVSPost2010PropOp41
 70
     1
102
RTVSPost2010Prop42
 90
       50
102
RTVSPost2010PropOp42
 70
     1
102
RTVSPost2010Prop43
 90
        3
102
RTVSPost2010PropOp43
 70
     1
102
RTVSPost2010Prop44ColorIndex
 90
        5
102
RTVSPost2010Prop44ColorRGB
 90
      255
102
RTVSPost2010PropOp44
 70
     1
102
RTVSPost2010Prop45
280
     0
102
RTVSPost2010PropOp45
 70
     1
102
RTVSPost2010Prop46
 90
       50
102
RTVSPost2010PropOp46
 70
     1
102
RTVSPost2010Prop47
 90
       50
102
RTVSPost2010PropOp47
 70
     1
102
RTVSPost2010Prop48
 90
       50
102
RTVSPost2010PropOp48
 70
     1
102
RTVSPost2010Prop49
280
     0
102
RTVSPost2010PropOp49
 70
     1
102
RTVSPost2010Prop50
 90
       50
102
RTVSPost2010PropOp50
 70
     1
102
RTVSPost2010Prop51ColorIndex
 90
      256
102
RTVSPost2010Prop51ColorRGB
 90
-16777216
102
RTVSPost2010PropOp51
 70
     0
102
RTVSPost2010Prop52
140
1.0
102
RTVSPost2010PropOp52
 70
     0
102
RTVSPost2010Prop53
 90
        2
102
RTVSPost2010PropOp53
 70
     1
102
RTVSPost2010Prop54
  1
strokes_ogs.tif
102
RTVSPost2010PropOp54
 70
     1
102
RTVSPost2010Prop55
280
     0
102
RTVSPost2010PropOp55
 70
     1
102
RTVSPost2010Prop56
140
1.0
102
RTVSPost2010PropOp56
 70
     1
102
RTVSPost2010Prop57
140
1.0
102
RTVSPost2010PropOp57
 70
     1
  0
XRECORD
  5
20C
102
{ACAD_REACTORS
330
20B
102
}
330
20B
100
AcDbXrecord
280
     1
102
RTVSPropertyOp0
 70
     0
102
RTVSPropertyOp1
 70
     0
102
RTVSPropertyOp2
 70
     0
102
RTVSPropertyOp3
 70
     0
102
RTVSPropertyOp4
 70
     0
102
RTVSPropertyOp5
 70
     0
102
RTVSPropertyOp6
 70
     0
102
RTVSPropertyOp7
 70
     0
102
RTVSPropertyOp8
 70
     0
102
RTVSPropertyOp9
 70
     0
102
RTVSPropertyOp10
 70
     0
102
RTVSPropertyOp11
 70
     0
102
RTVSPropertyOp12
 70
     0
102
RTVSPropertyOp13
 70
     0
102
RTVSPropertyOp14
 70
     2
102
RTVSPropertyOp15
 70
     0
102
RTVSPropertyOp16
 70
     0
102
RTVSPropertyOp17
 70
     0
102
RTVSPropertyOp18
 70
     0
102
RTVSPropertyOp19
 70
     0
102
RTVSPropertyOp20
 70
     0
102
RTVSPropertyOp21
 70
     0
102
RTVSPropertyOp22
 70
     0
102
RTVSPropertyOp23
 70
     0
102
RTVSPropertyOp24
 70
     0
102
RTVSPropertyOp25
 70
     0
102
RTVSPropertyOp26
 70
     0
102
RTVSPropertyOp27
 70
     0
102
RTVSPropertyOp28
 70
     0
102
RTVSPropertyOp29
 70
     0
102
RTVSPropertyOp30
 70
     0
102
RTVSPropertyOp31
 70
     0
102
RTVSPropertyOp32
 70
     0
102
RTVSPropertyOp33
 70
     0
102
RTVSPropertyOp34
 70
     0
102
RTVSPropertyOp35
 70
     0
102
RTVSPropertyOp36
 70
     0
102
RTVSPropertyOp37
 70
     0
102
RTVSPropertyOp38
 70
     0
102
RTVSPropertyOp39
 70
     0
102
RTVSPropertyOp40
 70
     0
102
RTVSPropertyOp41
 70
     0
102
RTVSPropertyOp42
 70
     0
102
RTVSPropertyOp43
 70
     0
102
RTVSPropertyOp44
 70
     0
102
RTVSPropertyOp45
 70
     0
102
RTVSPropertyOp46
 70
     0
102
RTVSPropertyOp47
 70
     0
102
RTVSPropertyOp48
 70
     0
102
RTVSPropertyOp49
 70
     0
102
RTVSPropertyOp50
 70
     0
102
RTVSPropertyOp51
 70
     0
102
RTVSPropertyOp52
 70
     0
102
RTVSPropertyOp53
 70
     0
102
RTVSPropertyOp54
 70
     0
102
RTVSPropertyOp55
 70
     0
102
RTVSPropertyOp56
 70
     0
102
RTVSPropertyOp57
 70
     0
102
RTVSPost2010Prop28
280
     0
102
RTVSPost2010PropOp28
 70
     0
102
RTVSPost2010Prop29
280
     1
102
RTVSPost2010PropOp29
 70
     0
102
RTVSPost2010Prop30
280
     1
102
RTVSPost2010PropOp30
 70
     0
102
RTVSPost2010Prop31
280
     0
102
RTVSPost2010PropOp31
 70
     0
102
RTVSPost2010Prop32
280
     0
102
RTVSPost2010PropOp32
 70
     0
102
RTVSPost2010Prop33
280
     0
102
RTVSPost2010PropOp33
 70
     0
102
RTVSPost2010Prop34
280
     0
102
RTVSPost2010PropOp34
 70
     0
102
RTVSPost2010Prop35
280
     0
102
RTVSPost2010PropOp35
 70
     0
102
RTVSPost2010Prop36
280
     0
102
RTVSPost2010PropOp36
 70
     0
102
RTVSPost2010Prop37
 90
       50
102
RTVSPost2010PropOp37
 70
     0
102
RTVSPost2010Prop38
140
0.0
102
RTVSPost2010PropOp38
 70
     0
102
RTVSPost2010Prop39
140
1.0
102
RTVSPost2010PropOp39
 70
     0
102
RTVSPost2010Prop40
 90
        0
102
RTVSPost2010PropOp40
 70
     0
102
RTVSPost2010Prop41ColorIndex
 90
       18
102
RTVSPost2010Prop41ColorRGB
 90
        0
102
RTVSPost2010PropOp41
 70
     0
102
RTVSPost2010Prop42
 90
       50
102
RTVSPost2010PropOp42
 70
     0
102
RTVSPost2010Prop43
 90
        3
102
RTVSPost2010PropOp43
 70
     0
102
RTVSPost2010Prop44ColorIndex
 90
        5
102
RTVSPost2010Prop44ColorRGB
 90
      255
102
RTVSPost2010PropOp44
 70
     0
102
RTVSPost2010Prop45
280
     0
102
RTVSPost2010PropOp45
 70
     0
102
RTVSPost2010Prop46
 90
       50
102
RTVSPost2010PropOp46
 70
     0
102
RTVSPost2010Prop47
 90
       50
102
RTVSPost2010PropOp47
 70
     0
102
RTVSPost2010Prop48
 90
       50
102
RTVSPost2010PropOp48
 70
     0
102
RTVSPost2010Prop49
280
     0
102
RTVSPost2010PropOp49
 70
     0
102
RTVSPost2010Prop50
 90
       50
102
RTVSPost2010PropOp50
 70
     0
102
RTVSPost2010Prop51ColorIndex
 90
      256
102
RTVSPost2010Prop51ColorRGB
 90
-16777216
102
RTVSPost2010PropOp51
 70
     0
102
RTVSPost2010Prop52
140
1.0
102
RTVSPost2010PropOp52
 70
     0
102
RTVSPost2010Prop53
 90
        2
102
RTVSPost2010PropOp53
 70
     0
102
RTVSPost2010Prop54
  1
strokes_ogs.tif
102
RTVSPost2010PropOp54
 70
     0
102
RTVSPost2010Prop55
280
     0
102
RTVSPost2010PropOp55
 70
     0
102
RTVSPost2010Prop56
140
1.0
102
RTVSPost2010PropOp56
 70
     0
102
RTVSPost2010Prop57
140
1.0
102
RTVSPost2010PropOp57
 70
     0
  0
XRECORD
  5
1FA
102
{ACAD_REACTORS
330
1F9
102
}
330
1F9
100
AcDbXrecord
280
     1
102
RTVSPropertyOp0
 70
     1
102
RTVSPropertyOp1
 70
     1
102
RTVSPropertyOp2
 70
     1
102
RTVSPropertyOp3
 70
     1
102
RTVSPropertyOp4
 70
     1
102
RTVSPropertyOp5
 70
     1
102
RTVSPropertyOp6
 70
     1
102
RTVSPropertyOp7
 70
     1
102
RTVSPropertyOp8
 70
     1
102
RTVSPropertyOp9
 70
     1
102
RTVSPropertyOp10
 70
     1
102
RTVSPropertyOp11
 70
     1
102
RTVSPropertyOp12
 70
     1
102
RTVSPropertyOp13
 70
     1
102
RTVSPropertyOp14
 70
     1
102
RTVSPropertyOp15
 70
     1
102
RTVSPropertyOp16
 70
     1
102
RTVSPropertyOp17
 70
     1
102
RTVSPropertyOp18
 70
     1
102
RTVSPropertyOp19
 70
     1
102
RTVSPropertyOp20
 70
     1
102
RTVSPropertyOp21
 70
     1
102
RTVSPropertyOp22
 70
     1
102
RTVSPropertyOp23
 70
     1
102
RTVSPropertyOp24
 70
     1
102
RTVSPropertyOp25
 70
     1
102
RTVSPropertyOp26
 70
     1
102
RTVSPropertyOp27
 70
     1
102
RTVSPropertyOp28
 70
     1
102
RTVSPropertyOp29
 70
     1
102
RTVSPropertyOp30
 70
     1
102
RTVSPropertyOp31
 70
     1
102
RTVSPropertyOp32
 70
     1
102
RTVSPropertyOp33
 70
     1
102
RTVSPropertyOp34
 70
     1
102
RTVSPropertyOp35
 70
     1
102
RTVSPropertyOp36
 70
     1
102
RTVSPropertyOp37
 70
     1
102
RTVSPropertyOp38
 70
     1
102
RTVSPropertyOp39
 70
     1
102
RTVSPropertyOp40
 70
     1
102
RTVSPropertyOp41
 70
     1
102
RTVSPropertyOp42
 70
     1
102
RTVSPropertyOp43
 70
     1
102
RTVSPropertyOp44
 70
     1
102
RTVSPropertyOp45
 70
     1
102
RTVSPropertyOp46
 70
     1
102
RTVSPropertyOp47
 70
     1
102
RTVSPropertyOp48
 70
     1
102
RTVSPropertyOp49
 70
     1
102
RTVSPropertyOp50
 70
     1
102
RTVSPropertyOp51
 70
     0
102
RTVSPropertyOp52
 70
     0
102
RTVSPropertyOp53
 70
     1
102
RTVSPropertyOp54
 70
     1
102
RTVSPropertyOp55
 70
     1
102
RTVSPropertyOp56
 70
     1
102
RTVSPropertyOp57
 70
     1
102
RTVSPost2010Prop28
280
     0
102
RTVSPost2010PropOp28
 70
     1
102
RTVSPost2010Prop29
280
     1
102
RTVSPost2010PropOp29
 70
     1
102
RTVSPost2010Prop30
280
     1
102
RTVSPost2010PropOp30
 70
     1
102
RTVSPost2010Prop31
280
     0
102
RTVSPost2010PropOp31
 70
     1
102
RTVSPost2010Prop32
280
     0
102
RTVSPost2010PropOp32
 70
     1
102
RTVSPost2010Prop33
280
     0
102
RTVSPost2010PropOp33
 70
     1
102
RTVSPost2010Prop34
280
     0
102
RTVSPost2010PropOp34
 70
     1
102
RTVSPost2010Prop35
280
     0
102
RTVSPost2010PropOp35
 70
     1
102
RTVSPost2010Prop36
280
     0
102
RTVSPost2010PropOp36
 70
     1
102
RTVSPost2010Prop37
 90
       50
102
RTVSPost2010PropOp37
 70
     1
102
RTVSPost2010Prop38
140
0.0
102
RTVSPost2010PropOp38
 70
     1
102
RTVSPost2010Prop39
140
1.0
102
RTVSPost2010PropOp39
 70
     1
102
RTVSPost2010Prop40
 90
        0
102
RTVSPost2010PropOp40
 70
     1
102
RTVSPost2010Prop41ColorIndex
 90
       18
102
RTVSPost2010Prop41ColorRGB
 90
        0
102
RTVSPost2010PropOp41
 70
     1
102
RTVSPost2010Prop42
 90
       50
102
RTVSPost2010PropOp42
 70
     1
102
RTVSPost2010Prop43
 90
        3
102
RTVSPost2010PropOp43
 70
     1
102
RTVSPost2010Prop44ColorIndex
 90
        5
102
RTVSPost2010Prop44ColorRGB
 90
      255
102
RTVSPost2010PropOp44
 70
     1
102
RTVSPost2010Prop45
280
     0
102
RTVSPost2010PropOp45
 70
     1
102
RTVSPost2010Prop46
 90
       50
102
RTVSPost2010PropOp46
 70
     1
102
RTVSPost2010Prop47
 90
       50
102
RTVSPost2010PropOp47
 70
     1
102
RTVSPost2010Prop48
 90
       50
102
RTVSPost2010PropOp48
 70
     1
102
RTVSPost2010Prop49
280
     0
102
RTVSPost2010PropOp49
 70
     1
102
RTVSPost2010Prop50
 90
       50
102
RTVSPost2010PropOp50
 70
     1
102
RTVSPost2010Prop51ColorIndex
 90
      256
102
RTVSPost2010Prop51ColorRGB
 90
-16777216
102
RTVSPost2010PropOp51
 70
     0
102
RTVSPost2010Prop52
140
1.0
102
RTVSPost2010PropOp52
 70
     0
102
RTVSPost2010Prop53
 90
        2
102
RTVSPost2010PropOp53
 70
     1
102
RTVSPost2010Prop54
  1
strokes_ogs.tif
102
RTVSPost2010PropOp54
 70
     1
102
RTVSPost2010Prop55
280
     0
102
RTVSPost2010PropOp55
 70
     1
102
RTVSPost2010Prop56
140
1.0
102
RTVSPost2010PropOp56
 70
     1
102
RTVSPost2010Prop57
140
1.0
102
RTVSPost2010PropOp57
 70
     1
  0
XRECORD
  5
218
102
{ACAD_REACTORS
330
217
102
}
330
217
100
AcDbXrecord
280
     1
102
RTVSPropertyOp0
 70
     1
102
RTVSPropertyOp1
 70
     1
102
RTVSPropertyOp2
 70
     1
102
RTVSPropertyOp3
 70
     1
102
RTVSPropertyOp4
 70
     1
102
RTVSPropertyOp5
 70
     1
102
RTVSPropertyOp6
 70
     1
102
RTVSPropertyOp7
 70
     1
102
RTVSPropertyOp8
 70
     1
102
RTVSPropertyOp9
 70
     1
102
RTVSPropertyOp10
 70
     1
102
RTVSPropertyOp11
 70
     1
102
RTVSPropertyOp12
 70
     1
102
RTVSPropertyOp13
 70
     1
102
RTVSPropertyOp14
 70
     1
102
RTVSPropertyOp15
 70
     1
102
RTVSPropertyOp16
 70
     1
102
RTVSPropertyOp17
 70
     1
102
RTVSPropertyOp18
 70
     1
102
RTVSPropertyOp19
 70
     1
102
RTVSPropertyOp20
 70
     1
102
RTVSPropertyOp21
 70
     1
102
RTVSPropertyOp22
 70
     1
102
RTVSPropertyOp23
 70
     1
102
RTVSPropertyOp24
 70
     1
102
RTVSPropertyOp25
 70
     1
102
RTVSPropertyOp26
 70
     1
102
RTVSPropertyOp27
 70
     1
102
RTVSPropertyOp28
 70
     1
102
RTVSPropertyOp29
 70
     1
102
RTVSPropertyOp30
 70
     1
102
RTVSPropertyOp31
 70
     1
102
RTVSPropertyOp32
 70
     1
102
RTVSPropertyOp33
 70
     1
102
RTVSPropertyOp34
 70
     1
102
RTVSPropertyOp35
 70
     1
102
RTVSPropertyOp36
 70
     1
102
RTVSPropertyOp37
 70
     1
102
RTVSPropertyOp38
 70
     1
102
RTVSPropertyOp39
 70
     1
102
RTVSPropertyOp40
 70
     1
102
RTVSPropertyOp41
 70
     1
102
RTVSPropertyOp42
 70
     1
102
RTVSPropertyOp43
 70
     1
102
RTVSPropertyOp44
 70
     1
102
RTVSPropertyOp45
 70
     1
102
RTVSPropertyOp46
 70
     1
102
RTVSPropertyOp47
 70
     1
102
RTVSPropertyOp48
 70
     1
102
RTVSPropertyOp49
 70
     1
102
RTVSPropertyOp50
 70
     1
102
RTVSPropertyOp51
 70
     0
102
RTVSPropertyOp52
 70
     0
102
RTVSPropertyOp53
 70
     1
102
RTVSPropertyOp54
 70
     1
102
RTVSPropertyOp55
 70
     1
102
RTVSPropertyOp56
 70
     1
102
RTVSPropertyOp57
 70
     1
102
RTVSPost2010Prop28
280
     0
102
RTVSPost2010PropOp28
 70
     1
102
RTVSPost2010Prop29
280
     1
102
RTVSPost2010PropOp29
 70
     1
102
RTVSPost2010Prop30
280
     1
102
RTVSPost2010PropOp30
 70
     1
102
RTVSPost2010Prop31
280
     0
102
RTVSPost2010PropOp31
 70
     1
102
RTVSPost2010Prop32
280
     0
102
RTVSPost2010PropOp32
 70
     1
102
RTVSPost2010Prop33
280
     0
102
RTVSPost2010PropOp33
 70
     1
102
RTVSPost2010Prop34
280
     0
102
RTVSPost2010PropOp34
 70
     1
102
RTVSPost2010Prop35
280
     0
102
RTVSPost2010PropOp35
 70
     1
102
RTVSPost2010Prop36
280
     0
102
RTVSPost2010PropOp36
 70
     1
102
RTVSPost2010Prop37
 90
       50
102
RTVSPost2010PropOp37
 70
     1
102
RTVSPost2010Prop38
140
0.0
102
RTVSPost2010PropOp38
 70
     1
102
RTVSPost2010Prop39
140
1.0
102
RTVSPost2010PropOp39
 70
     1
102
RTVSPost2010Prop40
 90
        0
102
RTVSPost2010PropOp40
 70
     1
102
RTVSPost2010Prop41ColorIndex
 90
       18
102
RTVSPost2010Prop41ColorRGB
 90
        0
102
RTVSPost2010PropOp41
 70
     1
102
RTVSPost2010Prop42
 90
       50
102
RTVSPost2010PropOp42
 70
     1
102
RTVSPost2010Prop43
 90
        3
102
RTVSPost2010PropOp43
 70
     1
102
RTVSPost2010Prop44ColorIndex
 90
        5
102
RTVSPost2010Prop44ColorRGB
 90
      255
102
RTVSPost2010PropOp44
 70
     1
102
RTVSPost2010Prop45
280
     0
102
RTVSPost2010PropOp45
 70
     1
102
RTVSPost2010Prop46
 90
       50
102
RTVSPost2010PropOp46
 70
     1
102
RTVSPost2010Prop47
 90
       50
102
RTVSPost2010PropOp47
 70
     1
102
RTVSPost2010Prop48
 90
       50
102
RTVSPost2010PropOp48
 70
     1
102
RTVSPost2010Prop49
280
     0
102
RTVSPost2010PropOp49
 70
     1
102
RTVSPost2010Prop50
 90
       50
102
RTVSPost2010PropOp50
 70
     1
102
RTVSPost2010Prop51ColorIndex
 90
      256
102
RTVSPost2010Prop51ColorRGB
 90
-16777216
102
RTVSPost2010PropOp51
 70
     0
102
RTVSPost2010Prop52
140
1.0
102
RTVSPost2010PropOp52
 70
     0
102
RTVSPost2010Prop53
 90
        2
102
RTVSPost2010PropOp53
 70
     1
102
RTVSPost2010Prop54
  1
strokes_ogs.tif
102
RTVSPost2010PropOp54
 70
     1
102
RTVSPost2010Prop55
280
     0
102
RTVSPost2010PropOp55
 70
     1
102
RTVSPost2010Prop56
140
1.0
102
RTVSPost2010PropOp56
 70
     1
102
RTVSPost2010Prop57
140
1.0
102
RTVSPost2010PropOp57
 70
     1
  0
XRECORD
  5
216
102
{ACAD_REACTORS
330
215
102
}
330
215
100
AcDbXrecord
280
     1
102
RTVSPropertyOp0
 70
     1
102
RTVSPropertyOp1
 70
     1
102
RTVSPropertyOp2
 70
     1
102
RTVSPropertyOp3
 70
     1
102
RTVSPropertyOp4
 70
     1
102
RTVSPropertyOp5
 70
     1
102
RTVSPropertyOp6
 70
     1
102
RTVSPropertyOp7
 70
     1
102
RTVSPropertyOp8
 70
     1
102
RTVSPropertyOp9
 70
     1
102
RTVSPropertyOp10
 70
     1
102
RTVSPropertyOp11
 70
     1
102
RTVSPropertyOp12
 70
     1
102
RTVSPropertyOp13
 70
     1
102
RTVSPropertyOp14
 70
     1
102
RTVSPropertyOp15
 70
     1
102
RTVSPropertyOp16
 70
     1
102
RTVSPropertyOp17
 70
     1
102
RTVSPropertyOp18
 70
     1
102
RTVSPropertyOp19
 70
     1
102
RTVSPropertyOp20
 70
     1
102
RTVSPropertyOp21
 70
     1
102
RTVSPropertyOp22
 70
     1
102
RTVSPropertyOp23
 70
     1
102
RTVSPropertyOp24
 70
     1
102
RTVSPropertyOp25
 70
     1
102
RTVSPropertyOp26
 70
     1
102
RTVSPropertyOp27
 70
     1
102
RTVSPropertyOp28
 70
     1
102
RTVSPropertyOp29
 70
     1
102
RTVSPropertyOp30
 70
     1
102
RTVSPropertyOp31
 70
     1
102
RTVSPropertyOp32
 70
     1
102
RTVSPropertyOp33
 70
     1
102
RTVSPropertyOp34
 70
     1
102
RTVSPropertyOp35
 70
     1
102
RTVSPropertyOp36
 70
     1
102
RTVSPropertyOp37
 70
     1
102
RTVSPropertyOp38
 70
     1
102
RTVSPropertyOp39
 70
     1
102
RTVSPropertyOp40
 70
     1
102
RTVSPropertyOp41
 70
     1
102
RTVSPropertyOp42
 70
     1
102
RTVSPropertyOp43
 70
     1
102
RTVSPropertyOp44
 70
     1
102
RTVSPropertyOp45
 70
     1
102
RTVSPropertyOp46
 70
     1
102
RTVSPropertyOp47
 70
     1
102
RTVSPropertyOp48
 70
     1
102
RTVSPropertyOp49
 70
     1
102
RTVSPropertyOp50
 70
     1
102
RTVSPropertyOp51
 70
     0
102
RTVSPropertyOp52
 70
     0
102
RTVSPropertyOp53
 70
     1
102
RTVSPropertyOp54
 70
     1
102
RTVSPropertyOp55
 70
     1
102
RTVSPropertyOp56
 70
     1
102
RTVSPropertyOp57
 70
     1
102
RTVSPost2010Prop28
280
     0
102
RTVSPost2010PropOp28
 70
     1
102
RTVSPost2010Prop29
280
     1
102
RTVSPost2010PropOp29
 70
     1
102
RTVSPost2010Prop30
280
     1
102
RTVSPost2010PropOp30
 70
     1
102
RTVSPost2010Prop31
280
     0
102
RTVSPost2010PropOp31
 70
     1
102
RTVSPost2010Prop32
280
     0
102
RTVSPost2010PropOp32
 70
     1
102
RTVSPost2010Prop33
280
     0
102
RTVSPost2010PropOp33
 70
     1
102
RTVSPost2010Prop34
280
     0
102
RTVSPost2010PropOp34
 70
     1
102
RTVSPost2010Prop35
280
     0
102
RTVSPost2010PropOp35
 70
     1
102
RTVSPost2010Prop36
280
     0
102
RTVSPost2010PropOp36
 70
     1
102
RTVSPost2010Prop37
 90
       50
102
RTVSPost2010PropOp37
 70
     1
102
RTVSPost2010Prop38
140
0.0
102
RTVSPost2010PropOp38
 70
     1
102
RTVSPost2010Prop39
140
1.0
102
RTVSPost2010PropOp39
 70
     1
102
RTVSPost2010Prop40
 90
        0
102
RTVSPost2010PropOp40
 70
     1
102
RTVSPost2010Prop41ColorIndex
 90
       18
102
RTVSPost2010Prop41ColorRGB
 90
        0
102
RTVSPost2010PropOp41
 70
     1
102
RTVSPost2010Prop42
 90
       50
102
RTVSPost2010PropOp42
 70
     1
102
RTVSPost2010Prop43
 90
        3
102
RTVSPost2010PropOp43
 70
     1
102
RTVSPost2010Prop44ColorIndex
 90
        5
102
RTVSPost2010Prop44ColorRGB
 90
      255
102
RTVSPost2010PropOp44
 70
     1
102
RTVSPost2010Prop45
280
     0
102
RTVSPost2010PropOp45
 70
     1
102
RTVSPost2010Prop46
 90
       50
102
RTVSPost2010PropOp46
 70
     1
102
RTVSPost2010Prop47
 90
       50
102
RTVSPost2010PropOp47
 70
     1
102
RTVSPost2010Prop48
 90
       50
102
RTVSPost2010PropOp48
 70
     1
102
RTVSPost2010Prop49
280
     0
102
RTVSPost2010PropOp49
 70
     1
102
RTVSPost2010Prop50
 90
       50
102
RTVSPost2010PropOp50
 70
     1
102
RTVSPost2010Prop51ColorIndex
 90
      256
102
RTVSPost2010Prop51ColorRGB
 90
-16777216
102
RTVSPost2010PropOp51
 70
     0
102
RTVSPost2010Prop52
140
1.0
102
RTVSPost2010PropOp52
 70
     0
102
RTVSPost2010Prop53
 90
        2
102
RTVSPost2010PropOp53
 70
     1
102
RTVSPost2010Prop54
  1
strokes_ogs.tif
102
RTVSPost2010PropOp54
 70
     1
102
RTVSPost2010Prop55
280
     0
102
RTVSPost2010PropOp55
 70
     1
102
RTVSPost2010Prop56
140
1.0
102
RTVSPost2010PropOp56
 70
     1
102
RTVSPost2010Prop57
140
1.0
102
RTVSPost2010PropOp57
 70
     1
  0
XRECORD
  5
210
102
{ACAD_REACTORS
330
20F
102
}
330
20F
100
AcDbXrecord
280
     1
102
RTVSPropertyOp0
 70
     1
102
RTVSPropertyOp1
 70
     1
102
RTVSPropertyOp2
 70
     1
102
RTVSPropertyOp3
 70
     1
102
RTVSPropertyOp4
 70
     1
102
RTVSPropertyOp5
 70
     1
102
RTVSPropertyOp6
 70
     1
102
RTVSPropertyOp7
 70
     1
102
RTVSPropertyOp8
 70
     1
102
RTVSPropertyOp9
 70
     1
102
RTVSPropertyOp10
 70
     1
102
RTVSPropertyOp11
 70
     1
102
RTVSPropertyOp12
 70
     1
102
RTVSPropertyOp13
 70
     1
102
RTVSPropertyOp14
 70
     1
102
RTVSPropertyOp15
 70
     1
102
RTVSPropertyOp16
 70
     1
102
RTVSPropertyOp17
 70
     1
102
RTVSPropertyOp18
 70
     1
102
RTVSPropertyOp19
 70
     1
102
RTVSPropertyOp20
 70
     1
102
RTVSPropertyOp21
 70
     1
102
RTVSPropertyOp22
 70
     1
102
RTVSPropertyOp23
 70
     1
102
RTVSPropertyOp24
 70
     1
102
RTVSPropertyOp25
 70
     1
102
RTVSPropertyOp26
 70
     1
102
RTVSPropertyOp27
 70
     1
102
RTVSPropertyOp28
 70
     1
102
RTVSPropertyOp29
 70
     1
102
RTVSPropertyOp30
 70
     1
102
RTVSPropertyOp31
 70
     1
102
RTVSPropertyOp32
 70
     1
102
RTVSPropertyOp33
 70
     1
102
RTVSPropertyOp34
 70
     1
102
RTVSPropertyOp35
 70
     1
102
RTVSPropertyOp36
 70
     1
102
RTVSPropertyOp37
 70
     1
102
RTVSPropertyOp38
 70
     1
102
RTVSPropertyOp39
 70
     1
102
RTVSPropertyOp40
 70
     1
102
RTVSPropertyOp41
 70
     1
102
RTVSPropertyOp42
 70
     1
102
RTVSPropertyOp43
 70
     1
102
RTVSPropertyOp44
 70
     1
102
RTVSPropertyOp45
 70
     1
102
RTVSPropertyOp46
 70
     1
102
RTVSPropertyOp47
 70
     1
102
RTVSPropertyOp48
 70
     1
102
RTVSPropertyOp49
 70
     1
102
RTVSPropertyOp50
 70
     1
102
RTVSPropertyOp51
 70
     0
102
RTVSPropertyOp52
 70
     0
102
RTVSPropertyOp53
 70
     1
102
RTVSPropertyOp54
 70
     1
102
RTVSPropertyOp55
 70
     1
102
RTVSPropertyOp56
 70
     1
102
RTVSPropertyOp57
 70
     1
102
RTVSPost2010Prop28
280
     0
102
RTVSPost2010PropOp28
 70
     1
102
RTVSPost2010Prop29
280
     1
102
RTVSPost2010PropOp29
 70
     1
102
RTVSPost2010Prop30
280
     1
102
RTVSPost2010PropOp30
 70
     1
102
RTVSPost2010Prop31
280
     0
102
RTVSPost2010PropOp31
 70
     1
102
RTVSPost2010Prop32
280
     0
102
RTVSPost2010PropOp32
 70
     1
102
RTVSPost2010Prop33
280
     0
102
RTVSPost2010PropOp33
 70
     1
102
RTVSPost2010Prop34
280
     0
102
RTVSPost2010PropOp34
 70
     1
102
RTVSPost2010Prop35
280
     0
102
RTVSPost2010PropOp35
 70
     1
102
RTVSPost2010Prop36
280
     0
102
RTVSPost2010PropOp36
 70
     1
102
RTVSPost2010Prop37
 90
       50
102
RTVSPost2010PropOp37
 70
     1
102
RTVSPost2010Prop38
140
0.0
102
RTVSPost2010PropOp38
 70
     1
102
RTVSPost2010Prop39
140
1.0
102
RTVSPost2010PropOp39
 70
     1
102
RTVSPost2010Prop40
 90
        0
102
RTVSPost2010PropOp40
 70
     1
102
RTVSPost2010Prop41ColorIndex
 90
       18
102
RTVSPost2010Prop41ColorRGB
 90
        0
102
RTVSPost2010PropOp41
 70
     1
102
RTVSPost2010Prop42
 90
       50
102
RTVSPost2010PropOp42
 70
     1
102
RTVSPost2010Prop43
 90
        3
102
RTVSPost2010PropOp43
 70
     1
102
RTVSPost2010Prop44ColorIndex
 90
        5
102
RTVSPost2010Prop44ColorRGB
 90
      255
102
RTVSPost2010PropOp44
 70
     1
102
RTVSPost2010Prop45
280
     0
102
RTVSPost2010PropOp45
 70
     1
102
RTVSPost2010Prop46
 90
       50
102
RTVSPost2010PropOp46
 70
     1
102
RTVSPost2010Prop47
 90
       50
102
RTVSPost2010PropOp47
 70
     1
102
RTVSPost2010Prop48
 90
       50
102
RTVSPost2010PropOp48
 70
     1
102
RTVSPost2010Prop49
280
     0
102
RTVSPost2010PropOp49
 70
     1
102
RTVSPost2010Prop50
 90
       50
102
RTVSPost2010PropOp50
 70
     1
102
RTVSPost2010Prop51ColorIndex
 90
      256
102
RTVSPost2010Prop51ColorRGB
 90
-16777216
102
RTVSPost2010PropOp51
 70
     0
102
RTVSPost2010Prop52
140
1.0
102
RTVSPost2010PropOp52
 70
     0
102
RTVSPost2010Prop53
 90
        2
102
RTVSPost2010PropOp53
 70
     1
102
RTVSPost2010Prop54
  1
strokes_ogs.tif
102
RTVSPost2010PropOp54
 70
     1
102
RTVSPost2010Prop55
280
     0
102
RTVSPost2010PropOp55
 70
     1
102
RTVSPost2010Prop56
140
1.0
102
RTVSPost2010PropOp56
 70
     1
102
RTVSPost2010Prop57
140
1.0
102
RTVSPost2010PropOp57
 70
     1
  0
XRECORD
  5
212
102
{ACAD_REACTORS
330
211
102
}
330
211
100
AcDbXrecord
280
     1
102
RTVSPropertyOp0
 70
     1
102
RTVSPropertyOp1
 70
     1
102
RTVSPropertyOp2
 70
     1
102
RTVSPropertyOp3
 70
     1
102
RTVSPropertyOp4
 70
     1
102
RTVSPropertyOp5
 70
     1
102
RTVSPropertyOp6
 70
     1
102
RTVSPropertyOp7
 70
     1
102
RTVSPropertyOp8
 70
     1
102
RTVSPropertyOp9
 70
     1
102
RTVSPropertyOp10
 70
     1
102
RTVSPropertyOp11
 70
     1
102
RTVSPropertyOp12
 70
     1
102
RTVSPropertyOp13
 70
     1
102
RTVSPropertyOp14
 70
     1
102
RTVSPropertyOp15
 70
     1
102
RTVSPropertyOp16
 70
     1
102
RTVSPropertyOp17
 70
     1
102
RTVSPropertyOp18
 70
     1
102
RTVSPropertyOp19
 70
     1
102
RTVSPropertyOp20
 70
     1
102
RTVSPropertyOp21
 70
     1
102
RTVSPropertyOp22
 70
     1
102
RTVSPropertyOp23
 70
     1
102
RTVSPropertyOp24
 70
     1
102
RTVSPropertyOp25
 70
     1
102
RTVSPropertyOp26
 70
     1
102
RTVSPropertyOp27
 70
     1
102
RTVSPropertyOp28
 70
     1
102
RTVSPropertyOp29
 70
     1
102
RTVSPropertyOp30
 70
     1
102
RTVSPropertyOp31
 70
     1
102
RTVSPropertyOp32
 70
     1
102
RTVSPropertyOp33
 70
     1
102
RTVSPropertyOp34
 70
     1
102
RTVSPropertyOp35
 70
     1
102
RTVSPropertyOp36
 70
     1
102
RTVSPropertyOp37
 70
     1
102
RTVSPropertyOp38
 70
     1
102
RTVSPropertyOp39
 70
     1
102
RTVSPropertyOp40
 70
     1
102
RTVSPropertyOp41
 70
     1
102
RTVSPropertyOp42
 70
     1
102
RTVSPropertyOp43
 70
     1
102
RTVSPropertyOp44
 70
     1
102
RTVSPropertyOp45
 70
     1
102
RTVSPropertyOp46
 70
     1
102
RTVSPropertyOp47
 70
     1
102
RTVSPropertyOp48
 70
     1
102
RTVSPropertyOp49
 70
     1
102
RTVSPropertyOp50
 70
     1
102
RTVSPropertyOp51
 70
     0
102
RTVSPropertyOp52
 70
     0
102
RTVSPropertyOp53
 70
     1
102
RTVSPropertyOp54
 70
     1
102
RTVSPropertyOp55
 70
     1
102
RTVSPropertyOp56
 70
     1
102
RTVSPropertyOp57
 70
     1
102
RTVSPost2010Prop28
280
     0
102
RTVSPost2010PropOp28
 70
     1
102
RTVSPost2010Prop29
280
     1
102
RTVSPost2010PropOp29
 70
     1
102
RTVSPost2010Prop30
280
     1
102
RTVSPost2010PropOp30
 70
     1
102
RTVSPost2010Prop31
280
     0
102
RTVSPost2010PropOp31
 70
     1
102
RTVSPost2010Prop32
280
     0
102
RTVSPost2010PropOp32
 70
     1
102
RTVSPost2010Prop33
280
     0
102
RTVSPost2010PropOp33
 70
     1
102
RTVSPost2010Prop34
280
     0
102
RTVSPost2010PropOp34
 70
     1
102
RTVSPost2010Prop35
280
     0
102
RTVSPost2010PropOp35
 70
     1
102
RTVSPost2010Prop36
280
     0
102
RTVSPost2010PropOp36
 70
     1
102
RTVSPost2010Prop37
 90
       50
102
RTVSPost2010PropOp37
 70
     1
102
RTVSPost2010Prop38
140
0.0
102
RTVSPost2010PropOp38
 70
     1
102
RTVSPost2010Prop39
140
1.0
102
RTVSPost2010PropOp39
 70
     1
102
RTVSPost2010Prop40
 90
        0
102
RTVSPost2010PropOp40
 70
     1
102
RTVSPost2010Prop41ColorIndex
 90
       18
102
RTVSPost2010Prop41ColorRGB
 90
        0
102
RTVSPost2010PropOp41
 70
     1
102
RTVSPost2010Prop42
 90
       50
102
RTVSPost2010PropOp42
 70
     1
102
RTVSPost2010Prop43
 90
        3
102
RTVSPost2010PropOp43
 70
     1
102
RTVSPost2010Prop44ColorIndex
 90
        5
102
RTVSPost2010Prop44ColorRGB
 90
      255
102
RTVSPost2010PropOp44
 70
     1
102
RTVSPost2010Prop45
280
     0
102
RTVSPost2010PropOp45
 70
     1
102
RTVSPost2010Prop46
 90
       50
102
RTVSPost2010PropOp46
 70
     1
102
RTVSPost2010Prop47
 90
       50
102
RTVSPost2010PropOp47
 70
     1
102
RTVSPost2010Prop48
 90
       50
102
RTVSPost2010PropOp48
 70
     1
102
RTVSPost2010Prop49
280
     0
102
RTVSPost2010PropOp49
 70
     1
102
RTVSPost2010Prop50
 90
       50
102
RTVSPost2010PropOp50
 70
     1
102
RTVSPost2010Prop51ColorIndex
 90
      256
102
RTVSPost2010Prop51ColorRGB
 90
-16777216
102
RTVSPost2010PropOp51
 70
     0
102
RTVSPost2010Prop52
140
1.0
102
RTVSPost2010PropOp52
 70
     0
102
RTVSPost2010Prop53
 90
        2
102
RTVSPost2010PropOp53
 70
     1
102
RTVSPost2010Prop54
  1
strokes_ogs.tif
102
RTVSPost2010PropOp54
 70
     1
102
RTVSPost2010Prop55
280
     0
102
RTVSPost2010PropOp55
 70
     1
102
RTVSPost2010Prop56
140
1.0
102
RTVSPost2010PropOp56
 70
     1
102
RTVSPost2010Prop57
140
1.0
102
RTVSPost2010PropOp57
 70
     1
  0
XRECORD
  5
202
102
{ACAD_REACTORS
330
201
102
}
330
201
100
AcDbXrecord
280
     1
102
RTVSPropertyOp0
 70
     1
102
RTVSPropertyOp1
 70
     1
102
RTVSPropertyOp2
 70
     1
102
RTVSPropertyOp3
 70
     1
102
RTVSPropertyOp4
 70
     1
102
RTVSPropertyOp5
 70
     1
102
RTVSPropertyOp6
 70
     1
102
RTVSPropertyOp7
 70
     1
102
RTVSPropertyOp8
 70
     1
102
RTVSPropertyOp9
 70
     1
102
RTVSPropertyOp10
 70
     1
102
RTVSPropertyOp11
 70
     1
102
RTVSPropertyOp12
 70
     1
102
RTVSPropertyOp13
 70
     1
102
RTVSPropertyOp14
 70
     1
102
RTVSPropertyOp15
 70
     1
102
RTVSPropertyOp16
 70
     1
102
RTVSPropertyOp17
 70
     1
102
RTVSPropertyOp18
 70
     1
102
RTVSPropertyOp19
 70
     1
102
RTVSPropertyOp20
 70
     1
102
RTVSPropertyOp21
 70
     1
102
RTVSPropertyOp22
 70
     1
102
RTVSPropertyOp23
 70
     1
102
RTVSPropertyOp24
 70
     1
102
RTVSPropertyOp25
 70
     1
102
RTVSPropertyOp26
 70
     1
102
RTVSPropertyOp27
 70
     1
102
RTVSPropertyOp28
 70
     1
102
RTVSPropertyOp29
 70
     1
102
RTVSPropertyOp30
 70
     1
102
RTVSPropertyOp31
 70
     1
102
RTVSPropertyOp32
 70
     1
102
RTVSPropertyOp33
 70
     1
102
RTVSPropertyOp34
 70
     1
102
RTVSPropertyOp35
 70
     1
102
RTVSPropertyOp36
 70
     1
102
RTVSPropertyOp37
 70
     1
102
RTVSPropertyOp38
 70
     1
102
RTVSPropertyOp39
 70
     1
102
RTVSPropertyOp40
 70
     1
102
RTVSPropertyOp41
 70
     1
102
RTVSPropertyOp42
 70
     1
102
RTVSPropertyOp43
 70
     1
102
RTVSPropertyOp44
 70
     1
102
RTVSPropertyOp45
 70
     1
102
RTVSPropertyOp46
 70
     1
102
RTVSPropertyOp47
 70
     1
102
RTVSPropertyOp48
 70
     1
102
RTVSPropertyOp49
 70
     1
102
RTVSPropertyOp50
 70
     1
102
RTVSPropertyOp51
 70
     0
102
RTVSPropertyOp52
 70
     0
102
RTVSPropertyOp53
 70
     1
102
RTVSPropertyOp54
 70
     1
102
RTVSPropertyOp55
 70
     1
102
RTVSPropertyOp56
 70
     1
102
RTVSPropertyOp57
 70
     1
102
RTVSPost2010Prop28
280
     0
102
RTVSPost2010PropOp28
 70
     1
102
RTVSPost2010Prop29
280
     1
102
RTVSPost2010PropOp29
 70
     1
102
RTVSPost2010Prop30
280
     1
102
RTVSPost2010PropOp30
 70
     1
102
RTVSPost2010Prop31
280
     0
102
RTVSPost2010PropOp31
 70
     1
102
RTVSPost2010Prop32
280
     0
102
RTVSPost2010PropOp32
 70
     1
102
RTVSPost2010Prop33
280
     0
102
RTVSPost2010PropOp33
 70
     1
102
RTVSPost2010Prop34
280
     0
102
RTVSPost2010PropOp34
 70
     1
102
RTVSPost2010Prop35
280
     0
102
RTVSPost2010PropOp35
 70
     1
102
RTVSPost2010Prop36
280
     0
102
RTVSPost2010PropOp36
 70
     1
102
RTVSPost2010Prop37
 90
       50
102
RTVSPost2010PropOp37
 70
     1
102
RTVSPost2010Prop38
140
0.0
102
RTVSPost2010PropOp38
 70
     1
102
RTVSPost2010Prop39
140
1.0
102
RTVSPost2010PropOp39
 70
     1
102
RTVSPost2010Prop40
 90
        0
102
RTVSPost2010PropOp40
 70
     1
102
RTVSPost2010Prop41ColorIndex
 90
       18
102
RTVSPost2010Prop41ColorRGB
 90
        0
102
RTVSPost2010PropOp41
 70
     1
102
RTVSPost2010Prop42
 90
       50
102
RTVSPost2010PropOp42
 70
     1
102
RTVSPost2010Prop43
 90
        3
102
RTVSPost2010PropOp43
 70
     1
102
RTVSPost2010Prop44ColorIndex
 90
        5
102
RTVSPost2010Prop44ColorRGB
 90
      255
102
RTVSPost2010PropOp44
 70
     1
102
RTVSPost2010Prop45
280
     0
102
RTVSPost2010PropOp45
 70
     1
102
RTVSPost2010Prop46
 90
       50
102
RTVSPost2010PropOp46
 70
     1
102
RTVSPost2010Prop47
 90
       50
102
RTVSPost2010PropOp47
 70
     1
102
RTVSPost2010Prop48
 90
       50
102
RTVSPost2010PropOp48
 70
     1
102
RTVSPost2010Prop49
280
     0
102
RTVSPost2010PropOp49
 70
     1
102
RTVSPost2010Prop50
 90
       50
102
RTVSPost2010PropOp50
 70
     1
102
RTVSPost2010Prop51ColorIndex
 90
      256
102
RTVSPost2010Prop51ColorRGB
 90
-16777216
102
RTVSPost2010PropOp51
 70
     0
102
RTVSPost2010Prop52
140
1.0
102
RTVSPost2010PropOp52
 70
     0
102
RTVSPost2010Prop53
 90
        2
102
RTVSPost2010PropOp53
 70
     1
102
RTVSPost2010Prop54
  1
strokes_ogs.tif
102
RTVSPost2010PropOp54
 70
     1
102
RTVSPost2010Prop55
280
     0
102
RTVSPost2010PropOp55
 70
     1
102
RTVSPost2010Prop56
140
1.0
102
RTVSPost2010PropOp56
 70
     1
102
RTVSPost2010Prop57
140
1.0
102
RTVSPost2010PropOp57
 70
     1
  0
XRECORD
  5
1F4
102
{ACAD_REACTORS
330
1F3
102
}
330
1F3
100
AcDbXrecord
280
     1
102
RTVSPropertyOp0
 70
     1
102
RTVSPropertyOp1
 70
     1
102
RTVSPropertyOp2
 70
     1
102
RTVSPropertyOp3
 70
     1
102
RTVSPropertyOp4
 70
     1
102
RTVSPropertyOp5
 70
     1
102
RTVSPropertyOp6
 70
     1
102
RTVSPropertyOp7
 70
     1
102
RTVSPropertyOp8
 70
     1
102
RTVSPropertyOp9
 70
     1
102
RTVSPropertyOp10
 70
     1
102
RTVSPropertyOp11
 70
     1
102
RTVSPropertyOp12
 70
     1
102
RTVSPropertyOp13
 70
     1
102
RTVSPropertyOp14
 70
     1
102
RTVSPropertyOp15
 70
     1
102
RTVSPropertyOp16
 70
     1
102
RTVSPropertyOp17
 70
     1
102
RTVSPropertyOp18
 70
     1
102
RTVSPropertyOp19
 70
     1
102
RTVSPropertyOp20
 70
     1
102
RTVSPropertyOp21
 70
     1
102
RTVSPropertyOp22
 70
     1
102
RTVSPropertyOp23
 70
     1
102
RTVSPropertyOp24
 70
     1
102
RTVSPropertyOp25
 70
     1
102
RTVSPropertyOp26
 70
     1
102
RTVSPropertyOp27
 70
     1
102
RTVSPropertyOp28
 70
     1
102
RTVSPropertyOp29
 70
     1
102
RTVSPropertyOp30
 70
     1
102
RTVSPropertyOp31
 70
     1
102
RTVSPropertyOp32
 70
     1
102
RTVSPropertyOp33
 70
     1
102
RTVSPropertyOp34
 70
     1
102
RTVSPropertyOp35
 70
     1
102
RTVSPropertyOp36
 70
     1
102
RTVSPropertyOp37
 70
     1
102
RTVSPropertyOp38
 70
     1
102
RTVSPropertyOp39
 70
     1
102
RTVSPropertyOp40
 70
     1
102
RTVSPropertyOp41
 70
     1
102
RTVSPropertyOp42
 70
     1
102
RTVSPropertyOp43
 70
     1
102
RTVSPropertyOp44
 70
     1
102
RTVSPropertyOp45
 70
     1
102
RTVSPropertyOp46
 70
     1
102
RTVSPropertyOp47
 70
     1
102
RTVSPropertyOp48
 70
     1
102
RTVSPropertyOp49
 70
     1
102
RTVSPropertyOp50
 70
     1
102
RTVSPropertyOp51
 70
     0
102
RTVSPropertyOp52
 70
     0
102
RTVSPropertyOp53
 70
     1
102
RTVSPropertyOp54
 70
     1
102
RTVSPropertyOp55
 70
     1
102
RTVSPropertyOp56
 70
     1
102
RTVSPropertyOp57
 70
     1
102
RTVSPost2010Prop28
280
     0
102
RTVSPost2010PropOp28
 70
     1
102
RTVSPost2010Prop29
280
     1
102
RTVSPost2010PropOp29
 70
     1
102
RTVSPost2010Prop30
280
     1
102
RTVSPost2010PropOp30
 70
     1
102
RTVSPost2010Prop31
280
     0
102
RTVSPost2010PropOp31
 70
     1
102
RTVSPost2010Prop32
280
     0
102
RTVSPost2010PropOp32
 70
     1
102
RTVSPost2010Prop33
280
     0
102
RTVSPost2010PropOp33
 70
     1
102
RTVSPost2010Prop34
280
     0
102
RTVSPost2010PropOp34
 70
     1
102
RTVSPost2010Prop35
280
     0
102
RTVSPost2010PropOp35
 70
     1
102
RTVSPost2010Prop36
280
     0
102
RTVSPost2010PropOp36
 70
     1
102
RTVSPost2010Prop37
 90
       50
102
RTVSPost2010PropOp37
 70
     1
102
RTVSPost2010Prop38
140
0.0
102
RTVSPost2010PropOp38
 70
     1
102
RTVSPost2010Prop39
140
1.0
102
RTVSPost2010PropOp39
 70
     1
102
RTVSPost2010Prop40
 90
        0
102
RTVSPost2010PropOp40
 70
     1
102
RTVSPost2010Prop41ColorIndex
 90
       18
102
RTVSPost2010Prop41ColorRGB
 90
        0
102
RTVSPost2010PropOp41
 70
     1
102
RTVSPost2010Prop42
 90
       50
102
RTVSPost2010PropOp42
 70
     1
102
RTVSPost2010Prop43
 90
        3
102
RTVSPost2010PropOp43
 70
     1
102
RTVSPost2010Prop44ColorIndex
 90
        5
102
RTVSPost2010Prop44ColorRGB
 90
      255
102
RTVSPost2010PropOp44
 70
     1
102
RTVSPost2010Prop45
280
     0
102
RTVSPost2010PropOp45
 70
     1
102
RTVSPost2010Prop46
 90
       50
102
RTVSPost2010PropOp46
 70
     1
102
RTVSPost2010Prop47
 90
       50
102
RTVSPost2010PropOp47
 70
     1
102
RTVSPost2010Prop48
 90
       50
102
RTVSPost2010PropOp48
 70
     1
102
RTVSPost2010Prop49
280
     0
102
RTVSPost2010PropOp49
 70
     1
102
RTVSPost2010Prop50
 90
       50
102
RTVSPost2010PropOp50
 70
     1
102
RTVSPost2010Prop51ColorIndex
 90
      256
102
RTVSPost2010Prop51ColorRGB
 90
-16777216
102
RTVSPost2010PropOp51
 70
     0
102
RTVSPost2010Prop52
140
1.0
102
RTVSPost2010PropOp52
 70
     0
102
RTVSPost2010Prop53
 90
        2
102
RTVSPost2010PropOp53
 70
     1
102
RTVSPost2010Prop54
  1
strokes_ogs.tif
102
RTVSPost2010PropOp54
 70
     1
102
RTVSPost2010Prop55
280
     0
102
RTVSPost2010PropOp55
 70
     1
102
RTVSPost2010Prop56
140
1.0
102
RTVSPost2010PropOp56
 70
     1
102
RTVSPost2010Prop57
140
1.0
102
RTVSPost2010PropOp57
 70
     1
  0
XRECORD
  5
214
102
{ACAD_REACTORS
330
213
102
}
330
213
100
AcDbXrecord
280
     1
102
RTVSPropertyOp0
 70
     1
102
RTVSPropertyOp1
 70
     1
102
RTVSPropertyOp2
 70
     1
102
RTVSPropertyOp3
 70
     1
102
RTVSPropertyOp4
 70
     1
102
RTVSPropertyOp5
 70
     1
102
RTVSPropertyOp6
 70
     1
102
RTVSPropertyOp7
 70
     1
102
RTVSPropertyOp8
 70
     1
102
RTVSPropertyOp9
 70
     1
102
RTVSPropertyOp10
 70
     1
102
RTVSPropertyOp11
 70
     1
102
RTVSPropertyOp12
 70
     1
102
RTVSPropertyOp13
 70
     1
102
RTVSPropertyOp14
 70
     1
102
RTVSPropertyOp15
 70
     1
102
RTVSPropertyOp16
 70
     1
102
RTVSPropertyOp17
 70
     1
102
RTVSPropertyOp18
 70
     1
102
RTVSPropertyOp19
 70
     1
102
RTVSPropertyOp20
 70
     1
102
RTVSPropertyOp21
 70
     1
102
RTVSPropertyOp22
 70
     1
102
RTVSPropertyOp23
 70
     1
102
RTVSPropertyOp24
 70
     1
102
RTVSPropertyOp25
 70
     1
102
RTVSPropertyOp26
 70
     1
102
RTVSPropertyOp27
 70
     1
102
RTVSPropertyOp28
 70
     1
102
RTVSPropertyOp29
 70
     1
102
RTVSPropertyOp30
 70
     1
102
RTVSPropertyOp31
 70
     1
102
RTVSPropertyOp32
 70
     1
102
RTVSPropertyOp33
 70
     1
102
RTVSPropertyOp34
 70
     1
102
RTVSPropertyOp35
 70
     1
102
RTVSPropertyOp36
 70
     1
102
RTVSPropertyOp37
 70
     1
102
RTVSPropertyOp38
 70
     1
102
RTVSPropertyOp39
 70
     1
102
RTVSPropertyOp40
 70
     1
102
RTVSPropertyOp41
 70
     1
102
RTVSPropertyOp42
 70
     1
102
RTVSPropertyOp43
 70
     1
102
RTVSPropertyOp44
 70
     1
102
RTVSPropertyOp45
 70
     1
102
RTVSPropertyOp46
 70
     1
102
RTVSPropertyOp47
 70
     1
102
RTVSPropertyOp48
 70
     1
102
RTVSPropertyOp49
 70
     1
102
RTVSPropertyOp50
 70
     1
102
RTVSPropertyOp51
 70
     0
102
RTVSPropertyOp52
 70
     0
102
RTVSPropertyOp53
 70
     1
102
RTVSPropertyOp54
 70
     1
102
RTVSPropertyOp55
 70
     1
102
RTVSPropertyOp56
 70
     1
102
RTVSPropertyOp57
 70
     1
102
RTVSPost2010Prop28
280
     0
102
RTVSPost2010PropOp28
 70
     1
102
RTVSPost2010Prop29
280
     1
102
RTVSPost2010PropOp29
 70
     1
102
RTVSPost2010Prop30
280
     1
102
RTVSPost2010PropOp30
 70
     1
102
RTVSPost2010Prop31
280
     0
102
RTVSPost2010PropOp31
 70
     1
102
RTVSPost2010Prop32
280
     0
102
RTVSPost2010PropOp32
 70
     1
102
RTVSPost2010Prop33
280
     0
102
RTVSPost2010PropOp33
 70
     1
102
RTVSPost2010Prop34
280
     0
102
RTVSPost2010PropOp34
 70
     1
102
RTVSPost2010Prop35
280
     0
102
RTVSPost2010PropOp35
 70
     1
102
RTVSPost2010Prop36
280
     0
102
RTVSPost2010PropOp36
 70
     1
102
RTVSPost2010Prop37
 90
       50
102
RTVSPost2010PropOp37
 70
     1
102
RTVSPost2010Prop38
140
0.0
102
RTVSPost2010PropOp38
 70
     1
102
RTVSPost2010Prop39
140
1.0
102
RTVSPost2010PropOp39
 70
     1
102
RTVSPost2010Prop40
 90
        0
102
RTVSPost2010PropOp40
 70
     1
102
RTVSPost2010Prop41ColorIndex
 90
       18
102
RTVSPost2010Prop41ColorRGB
 90
        0
102
RTVSPost2010PropOp41
 70
     1
102
RTVSPost2010Prop42
 90
       50
102
RTVSPost2010PropOp42
 70
     1
102
RTVSPost2010Prop43
 90
        3
102
RTVSPost2010PropOp43
 70
     1
102
RTVSPost2010Prop44ColorIndex
 90
        5
102
RTVSPost2010Prop44ColorRGB
 90
      255
102
RTVSPost2010PropOp44
 70
     1
102
RTVSPost2010Prop45
280
     0
102
RTVSPost2010PropOp45
 70
     1
102
RTVSPost2010Prop46
 90
       50
102
RTVSPost2010PropOp46
 70
     1
102
RTVSPost2010Prop47
 90
       50
102
RTVSPost2010PropOp47
 70
     1
102
RTVSPost2010Prop48
 90
       50
102
RTVSPost2010PropOp48
 70
     1
102
RTVSPost2010Prop49
280
     0
102
RTVSPost2010PropOp49
 70
     1
102
RTVSPost2010Prop50
 90
       50
102
RTVSPost2010PropOp50
 70
     1
102
RTVSPost2010Prop51ColorIndex
 90
      256
102
RTVSPost2010Prop51ColorRGB
 90
-16777216
102
RTVSPost2010PropOp51
 70
     0
102
RTVSPost2010Prop52
140
1.0
102
RTVSPost2010PropOp52
 70
     0
102
RTVSPost2010Prop53
 90
        2
102
RTVSPost2010PropOp53
 70
     1
102
RTVSPost2010Prop54
  1
strokes_ogs.tif
102
RTVSPost2010PropOp54
 70
     1
102
RTVSPost2010Prop55
280
     0
102
RTVSPost2010PropOp55
 70
     1
102
RTVSPost2010Prop56
140
1.0
102
RTVSPost2010PropOp56
 70
     1
102
RTVSPost2010Prop57
140
1.0
102
RTVSPost2010PropOp57
 70
     1
  0
ENDSEC
  0
EOF
